  0
SECTION
  2
HEADER
  9
$ACADVER
  1
AC1014
  9
$ACADMAINTVER
 70
     9
  9
$DWGCODEPAGE
  3
ANSI_1252
  9
$INSBASE
 10
0.0
 20
0.0
 30
0.0
  9
$EXTMIN
 10
1.000000000000000E+20
 20
1.000000000000000E+20
 30
1.000000000000000E+20
  9
$EXTMAX
 10
-1.000000000000000E+20
 20
-1.000000000000000E+20
 30
-1.000000000000000E+20
  9
$LIMMIN
 10
0.0
 20
0.0
  9
$LIMMAX
 10
12.0
 20
9.0
  9
$ORTHOMODE
 70
     0
  9
$REGENMODE
 70
     1
  9
$FILLMODE
 70
     1
  9
$QTEXTMODE
 70
     0
  9
$MIRRTEXT
 70
     1
  9
$DRAGMODE
 70
     2
  9
$LTSCALE
 40
1.0
  9
$OSMODE
 70
    37
  9
$ATTMODE
 70
     1
  9
$TEXTSIZE
 40
0.2
  9
$TRACEWID
 40
0.05
  9
$TEXTSTYLE
  7
STANDARD
  9
$CLAYER
  8
0
  9
$CELTYPE
  6
BYLAYER
  9
$CECOLOR
 62
   256
  9
$CELTSCALE
 40
1.0
  9
$DELOBJ
 70
     1
  9
$DISPSILH
 70
     0
  9
$DIMSCALE
 40
1.0
  9
$DIMASZ
 40
0.18
  9
$DIMEXO
 40
0.0625
  9
$DIMDLI
 40
0.38
  9
$DIMRND
 40
0.0
  9
$DIMDLE
 40
0.0
  9
$DIMEXE
 40
0.18
  9
$DIMTP
 40
0.0
  9
$DIMTM
 40
0.0
  9
$DIMTXT
 40
0.18
  9
$DIMCEN
 40
0.09
  9
$DIMTSZ
 40
0.0
  9
$DIMTOL
 70
     0
  9
$DIMLIM
 70
     0
  9
$DIMTIH
 70
     1
  9
$DIMTOH
 70
     1
  9
$DIMSE1
 70
     0
  9
$DIMSE2
 70
     0
  9
$DIMTAD
 70
     0
  9
$DIMZIN
 70
     0
  9
$DIMBLK
  1

  9
$DIMASO
 70
     1
  9
$DIMSHO
 70
     1
  9
$DIMPOST
  1

  9
$DIMAPOST
  1

  9
$DIMALT
 70
     0
  9
$DIMALTD
 70
     2
  9
$DIMALTF
 40
25.4
  9
$DIMLFAC
 40
1.0
  9
$DIMTOFL
 70
     0
  9
$DIMTVP
 40
0.0
  9
$DIMTIX
 70
     0
  9
$DIMSOXD
 70
     0
  9
$DIMSAH
 70
     0
  9
$DIMBLK1
  1

  9
$DIMBLK2
  1

  9
$DIMSTYLE
  2
STANDARD
  9
$DIMCLRD
 70
     0
  9
$DIMCLRE
 70
     0
  9
$DIMCLRT
 70
     0
  9
$DIMTFAC
 40
1.0
  9
$DIMGAP
 40
0.09
  9
$DIMJUST
 70
     0
  9
$DIMSD1
 70
     0
  9
$DIMSD2
 70
     0
  9
$DIMTOLJ
 70
     1
  9
$DIMTZIN
 70
     0
  9
$DIMALTZ
 70
     0
  9
$DIMALTTZ
 70
     0
  9
$DIMFIT
 70
     3
  9
$DIMUPT
 70
     0
  9
$DIMUNIT
 70
     2
  9
$DIMDEC
 70
     4
  9
$DIMTDEC
 70
     4
  9
$DIMALTU
 70
     2
  9
$DIMALTTD
 70
     2
  9
$DIMTXSTY
  7
STANDARD
  9
$DIMAUNIT
 70
     0
  9
$LUNITS
 70
     2
  9
$LUPREC
 70
     4
  9
$SKETCHINC
 40
0.1
  9
$FILLETRAD
 40
0.5
  9
$AUNITS
 70
     0
  9
$AUPREC
 70
     0
  9
$MENU
  1
.
  9
$ELEVATION
 40
0.0
  9
$PELEVATION
 40
0.0
  9
$THICKNESS
 40
0.0
  9
$LIMCHECK
 70
     0
  9
$CHAMFERA
 40
0.0
  9
$CHAMFERB
 40
0.0
  9
$CHAMFERC
 40
0.0
  9
$CHAMFERD
 40
0.0
  9
$SKPOLY
 70
     0
  9
$TDCREATE
 40
2458204.811153669
  9
$TDUPDATE
 40
2458204.811153738
  9
$TDINDWG
 40
0.0000000116
  9
$TDUSRTIMER
 40
0.0000000116
  9
$USRTIMER
 70
     1
  9
$ANGBASE
 50
0.0
  9
$ANGDIR
 70
     0
  9
$PDMODE
 70
     0
  9
$PDSIZE
 40
0.0
  9
$PLINEWID
 40
0.0
  9
$COORDS
 70
     1
  9
$SPLFRAME
 70
     0
  9
$SPLINETYPE
 70
     6
  9
$SPLINESEGS
 70
     8
  9
$ATTDIA
 70
     0
  9
$ATTREQ
 70
     1
  9
$HANDLING
 70
     1
  9
$HANDSEED
  5
100001F1
  9
$SURFTAB1
 70
     6
  9
$SURFTAB2
 70
     6
  9
$SURFTYPE
 70
     6
  9
$SURFU
 70
     6
  9
$SURFV
 70
     6
  9
$UCSNAME
  2

  9
$UCSORG
 10
0.0
 20
0.0
 30
0.0
  9
$UCSXDIR
 10
1.0
 20
0.0
 30
0.0
  9
$UCSYDIR
 10
0.0
 20
1.0
 30
0.0
  9
$PUCSNAME
  2

  9
$PUCSORG
 10
0.0
 20
0.0
 30
0.0
  9
$PUCSXDIR
 10
1.0
 20
0.0
 30
0.0
  9
$PUCSYDIR
 10
0.0
 20
1.0
 30
0.0
  9
$USERI1
 70
     0
  9
$USERI2
 70
     0
  9
$USERI3
 70
     0
  9
$USERI4
 70
     0
  9
$USERI5
 70
     0
  9
$USERR1
 40
0.0
  9
$USERR2
 40
0.0
  9
$USERR3
 40
0.0
  9
$USERR4
 40
0.0
  9
$USERR5
 40
0.0
  9
$WORLDVIEW
 70
     1
  9
$SHADEDGE
 70
     3
  9
$SHADEDIF
 70
    70
  9
$TILEMODE
 70
     1
  9
$MAXACTVP
 70
    64
  9
$PINSBASE
 10
0.0
 20
0.0
 30
0.0
  9
$PLIMCHECK
 70
     0
  9
$PEXTMIN
 10
1.000000000000000E+20
 20
1.000000000000000E+20
 30
1.000000000000000E+20
  9
$PEXTMAX
 10
-1.000000000000000E+20
 20
-1.000000000000000E+20
 30
-1.000000000000000E+20
  9
$PLIMMIN
 10
0.0
 20
0.0
  9
$PLIMMAX
 10
12.0
 20
9.0
  9
$UNITMODE
 70
     0
  9
$VISRETAIN
 70
     1
  9
$PLINEGEN
 70
     0
  9
$PSLTSCALE
 70
     1
  9
$TREEDEPTH
 70
  3020
  9
$PICKSTYLE
 70
     1
  9
$CMLSTYLE
  2
STANDARD
  9
$CMLJUST
 70
     0
  9
$CMLSCALE
 40
1.0
  9
$PROXYGRAPHICS
 70
     1
  9
$MEASUREMENT
 70
     0
  0
ENDSEC
  0
SECTION
  2
CLASSES
  0
CLASS
  1
ACDBDICTIONARYWDFLT
  2
AcDbDictionaryWithDefault
  3
ObjectDBX Classes
 90
        0
280
     0
281
     0
  0
CLASS
  1
VISUALSTYLE
  2
AcDbVisualStyle
  3
ObjectDBX Classes
 90
     4095
280
     0
281
     0
  0
CLASS
  1
MATERIAL
  2
AcDbMaterial
  3
ObjectDBX Classes
 90
     1153
280
     0
281
     0
  0
CLASS
  1
SCALE
  2
AcDbScale
  3
ObjectDBX Classes
 90
     1153
280
     0
281
     0
  0
CLASS
  1
TABLESTYLE
  2
AcDbTableStyle
  3
ObjectDBX Classes
 90
     4095
280
     0
281
     0
  0
CLASS
  1
MLEADERSTYLE
  2
AcDbMLeaderStyle
  3
ACDB_MLEADERSTYLE_CLASS
 90
     4095
280
     0
281
     0
  0
CLASS
  1
SUN
  2
AcDbSun
  3
SCENEOE
 90
     1153
280
     0
281
     0
  0
CLASS
  1
SORTENTSTABLE
  2
AcDbSortentsTable
  3
ObjectDBX Classes
 90
        0
280
     0
281
     0
  0
CLASS
  1
DICTIONARYVAR
  2
AcDbDictionaryVar
  3
ObjectDBX Classes
 90
        0
280
     0
281
     0
  0
CLASS
  1
XRECORD
  2
AcDbXrecord
  3
ObjectDBX Classes
 90
        0
280
     0
281
     0
  0
CLASS
  1
LWPOLYLINE
  2
AcDbPolyline
  3
ObjectDBX Classes
 90
        0
280
     0
281
     1
  0
CLASS
  1
HATCH
  2
AcDbHatch
  3
ObjectDBX Classes
 90
        0
280
     0
281
     1
  0
CLASS
  1
ACDBPLACEHOLDER
  2
AcDbPlaceHolder
  3
ObjectDBX Classes
 90
        0
280
     0
281
     0
  0
CLASS
  1
LAYOUT
  2
AcDbLayout
  3
ObjectDBX Classes
 90
        0
280
     0
281
     0
  0
ENDSEC
  0
SECTION
  2
TABLES
  0
TABLE
  2
VPORT
  5
8
102
{ACAD_XDICTIONARY
360
100001E6
102
}
330
0
100
AcDbSymbolTable
 70
     1
  0
VPORT
  5
29
330
8
100
AcDbSymbolTableRecord
100
AcDbViewportTableRecord
  2
*ACTIVE
 70
     0
 10
0.0
 20
0.0
 11
1.0
 21
1.0
 12
10.42990654205607
 22
4.5
 13
0.0
 23
0.0
 14
0.5
 24
0.5
 15
0.5
 25
0.5
 16
0.0
 26
0.0
 36
1.0
 17
0.0
 27
0.0
 37
0.0
 40
9.0
 41
1.972972972850329
 42
50.0
 43
0.0
 44
0.0
 50
0.0
 51
0.0
 71
     0
 72
   100
 73
     1
 74
     3
 75
     0
 76
     0
 77
     0
 78
     0
  0
ENDTAB
  0
TABLE
  2
LTYPE
  5
5
330
0
100
AcDbSymbolTable
 70
     7
  0
LTYPE
  5
14
330
5
100
AcDbSymbolTableRecord
100
AcDbLinetypeTableRecord
  2
BYBLOCK
 70
     0
  3

 72
    65
 73
     0
 40
0.0
  0
LTYPE
  5
15
330
5
100
AcDbSymbolTableRecord
100
AcDbLinetypeTableRecord
  2
BYLAYER
 70
     0
  3

 72
    65
 73
     0
 40
0.0
  0
LTYPE
  5
16
330
5
100
AcDbSymbolTableRecord
100
AcDbLinetypeTableRecord
  2
CONTINUOUS
 70
     0
  3
Solid line
 72
    65
 73
     0
 40
0.0
  0
LTYPE
  5
10000024
330
5
100
AcDbSymbolTableRecord
100
AcDbLinetypeTableRecord
  2
ONS_PHANTOM
 70
     0
  3
Onshape Phantom line ______ __ __ ______
 72
    65
 73
     6
 40
0.4999999999999999
 49
0.25
 74
     0
 49
-0.05
 74
     0
 49
0.05
 74
     0
 49
-0.05
 74
     0
 49
0.05
 74
     0
 49
-0.05
 74
     0
  0
LTYPE
  5
10000025
330
5
100
AcDbSymbolTableRecord
100
AcDbLinetypeTableRecord
  2
CENTER
 70
     0
  3
Center line ____ _ ____ _ ____ _
 72
    65
 73
     4
 40
0.7199999999999999
 49
0.45
 74
     0
 49
-0.09
 74
     0
 49
0.09
 74
     0
 49
-0.09
 74
     0
  0
LTYPE
  5
10000026
330
5
100
AcDbSymbolTableRecord
100
AcDbLinetypeTableRecord
  2
DASHED
 70
     0
  3
Dashed line __ __ __ __ __
 72
    65
 73
     2
 40
0.75
 49
0.5
 74
     0
 49
-0.25
 74
     0
  0
LTYPE
  5
10000027
330
5
100
AcDbSymbolTableRecord
100
AcDbLinetypeTableRecord
  2
ONS_DASHDOT
 70
     0
  3
Onshape Dashed with Dot _ . ____ . ____
 72
    65
 73
     4
 40
0.71
 49
0.5
 74
     0
 49
-0.1
 74
     0
 49
0.01
 74
     0
 49
-0.1
 74
     0
  0
LTYPE
  5
10000028
330
5
100
AcDbSymbolTableRecord
100
AcDbLinetypeTableRecord
  2
ONS_DOTTED
 70
     0
  3
Onshape Dotted line . . . . . . .
 72
    65
 73
     2
 40
0.11
 49
0.01
 74
     0
 49
-0.1
 74
     0
  0
LTYPE
  5
10000029
330
5
100
AcDbSymbolTableRecord
100
AcDbLinetypeTableRecord
  2
HIDDEN
 70
     0
  3
Hidden line ____ ____ ____ ____ 
 72
    65
 73
     2
 40
0.15
 49
0.1
 74
     0
 49
-0.05
 74
     0
  0
ENDTAB
  0
TABLE
  2
LAYER
  5
2
330
0
100
AcDbSymbolTable
 70
    34
  0
LAYER
  5
10
330
2
100
AcDbSymbolTableRecord
100
AcDbLayerTableRecord
  2
0
 70
     0
 62
     7
  6
CONTINUOUS
  0
LAYER
  5
1000002A
330
2
100
AcDbSymbolTableRecord
100
AcDbLayerTableRecord
  2
SECTION_CUTTING_LINE
 70
     0
 62
     7
  6
ONS_PHANTOM
  0
LAYER
  5
1000002B
330
2
100
AcDbSymbolTableRecord
100
AcDbLayerTableRecord
  2
DETAIL_VIEW_BORDER
 70
     0
 62
     7
  6
CONTINUOUS
  0
LAYER
  5
1000002C
330
2
100
AcDbSymbolTableRecord
100
AcDbLayerTableRecord
  2
DETAIL_VIEW_PARENT_BORDER
 70
     0
 62
     7
  6
ONS_PHANTOM
  0
LAYER
  5
1000002D
330
2
100
AcDbSymbolTableRecord
100
AcDbLayerTableRecord
  2
TEXT
 70
     0
 62
     7
  6
CONTINUOUS
  0
LAYER
  5
1000002E
330
2
100
AcDbSymbolTableRecord
100
AcDbLayerTableRecord
  2
SKETCHED_GEOMETRY
 70
     0
 62
    -7
  6
CONTINUOUS
  0
LAYER
  5
1000002F
330
2
100
AcDbSymbolTableRecord
100
AcDbLayerTableRecord
  2
CENTERLINES
 70
     0
 62
    -7
  6
CENTER
  0
LAYER
  5
10000030
330
2
100
AcDbSymbolTableRecord
100
AcDbLayerTableRecord
  2
CENTERMARKS
 70
     0
 62
    -7
  6
CONTINUOUS
  0
LAYER
  5
10000031
330
2
100
AcDbSymbolTableRecord
100
AcDbLayerTableRecord
  2
TABLES
 70
     0
 62
     7
  6
CONTINUOUS
  0
LAYER
  5
10000032
330
2
100
AcDbSymbolTableRecord
100
AcDbLayerTableRecord
  2
IMAGES
 70
     0
 62
    -7
  6
CONTINUOUS
  0
LAYER
  5
10000033
330
2
100
AcDbSymbolTableRecord
100
AcDbLayerTableRecord
  2
ANNOTATION_LINES
 70
     0
 62
    -7
  6
CONTINUOUS
  0
LAYER
  5
10000034
330
2
100
AcDbSymbolTableRecord
100
AcDbLayerTableRecord
  2
ANNOTATION_TEXT
 70
     0
 62
    -7
  6
CONTINUOUS
  0
LAYER
  5
10000035
330
2
100
AcDbSymbolTableRecord
100
AcDbLayerTableRecord
  2
SIDE_THREAD_SYMBOLS
 70
     0
 62
     7
  6
HIDDEN
  0
LAYER
  5
10000036
330
2
100
AcDbSymbolTableRecord
100
AcDbLayerTableRecord
  2
SIDE_THREAD_SYMBOLS_HIDDEN
 70
     0
 62
    -7
  6
HIDDEN
  0
LAYER
  5
10000037
330
2
100
AcDbSymbolTableRecord
100
AcDbLayerTableRecord
  2
SURFACE_THREAD_SYMBOLS
 70
     0
 62
     7
  6
HIDDEN
  0
LAYER
  5
10000038
330
2
100
AcDbSymbolTableRecord
100
AcDbLayerTableRecord
  2
SURFACE_THREAD_SYMBOLS_ON_
 70
     0
 62
     7
  6
HIDDEN
  0
LAYER
  5
10000039
330
2
100
AcDbSymbolTableRecord
100
AcDbLayerTableRecord
  2
SURFACE_THREAD_SYMBOLS_HID
 70
     0
 62
    -7
  6
HIDDEN
  0
LAYER
  5
1000003A
330
2
100
AcDbSymbolTableRecord
100
AcDbLayerTableRecord
  2
BLIND_THREAD_SYMBOLS
 70
     0
 62
     7
  6
CONTINUOUS
  0
LAYER
  5
1000003B
330
2
100
AcDbSymbolTableRecord
100
AcDbLayerTableRecord
  2
BLIND_THREAD_SYMBOLS_HIDDE
 70
     0
 62
    -7
  6
HIDDEN
  0
LAYER
  5
1000003C
330
2
100
AcDbSymbolTableRecord
100
AcDbLayerTableRecord
  2
EXPLODE_LINES
 70
     0
 62
     7
  6
CONTINUOUS
  0
LAYER
  5
1000003D
330
2
100
AcDbSymbolTableRecord
100
AcDbLayerTableRecord
  2
BREAK_LINES
 70
     0
 62
    -7
  6
CONTINUOUS
  0
LAYER
  5
1000003E
330
2
100
AcDbSymbolTableRecord
100
AcDbLayerTableRecord
  2
SHEETMETAL_BEND_LINES_UP
 70
     0
 62
    -7
  6
CENTER
  0
LAYER
  5
1000003F
330
2
100
AcDbSymbolTableRecord
100
AcDbLayerTableRecord
  2
SHEETMETAL_BEND_LINES_DOWN
 70
     0
 62
    -7
  6
CENTER
  0
LAYER
  5
10000040
330
2
100
AcDbSymbolTableRecord
100
AcDbLayerTableRecord
  2
SHEETMETAL_BEND_TANGENT_LI
 70
     0
 62
    -7
  6
CONTINUOUS
  0
LAYER
  5
10000041
330
2
100
AcDbSymbolTableRecord
100
AcDbLayerTableRecord
  2
SHEETMETAL_CUT_LINES
 70
     0
 62
     7
  6
CONTINUOUS
  0
LAYER
  5
10000042
330
2
100
AcDbSymbolTableRecord
100
AcDbLayerTableRecord
  2
HIDDEN
 70
     0
 62
    -7
  6
HIDDEN
  0
LAYER
  5
10000043
330
2
100
AcDbSymbolTableRecord
100
AcDbLayerTableRecord
  2
VISIBLE
 70
     0
 62
     7
  6
CONTINUOUS
  0
LAYER
  5
10000044
330
2
100
AcDbSymbolTableRecord
100
AcDbLayerTableRecord
  2
MODELSKETCH_VISIBLE
 70
     0
 62
     7
  6
CONTINUOUS
  0
LAYER
  5
10000045
330
2
100
AcDbSymbolTableRecord
100
AcDbLayerTableRecord
  2
MODELSKETCH_CONSTRUCTION
 70
     0
 62
    -7
  6
CENTER
  0
LAYER
  5
10000046
330
2
100
AcDbSymbolTableRecord
100
AcDbLayerTableRecord
  2
TANGENT_LINES
 70
     0
 62
    -7
  6
CONTINUOUS
  0
LAYER
  5
10000047
330
2
100
AcDbSymbolTableRecord
100
AcDbLayerTableRecord
  2
TANGENT_HIDDEN
 70
     0
 62
    -7
  6
HIDDEN
  0
LAYER
  5
10000048
330
2
100
AcDbSymbolTableRecord
100
AcDbLayerTableRecord
  2
INVISIBLE_LINES
 70
     0
 62
    -7
  6
CONTINUOUS
  0
LAYER
  5
10000049
330
2
100
AcDbSymbolTableRecord
100
AcDbLayerTableRecord
  2
VIEW_HATCHES
 70
     0
 62
    -7
  6
CONTINUOUS
  0
LAYER
  5
1000004A
330
2
100
AcDbSymbolTableRecord
100
AcDbLayerTableRecord
  2
SECTION_JOG_LINES
 70
     0
 62
    -7
  6
CONTINUOUS
  0
ENDTAB
  0
TABLE
  2
STYLE
  5
3
330
0
100
AcDbSymbolTable
 70
     2
  0
STYLE
  5
11
330
3
100
AcDbSymbolTableRecord
100
AcDbTextStyleTableRecord
  2
STANDARD
 70
     0
 40
0.0
 41
1.0
 50
0.0
 71
     0
 42
0.2
  3
txt
  4

  0
STYLE
  5
10000004
330
3
100
AcDbSymbolTableRecord
100
AcDbTextStyleTableRecord
  2
TTFSTYLE
 70
     0
 40
0.0
 41
1.0
 50
0.0
 71
     0
 42
0.2
  3
Verdana.ttf
  4

1001
ACAD
1000
Verdana
1071
       34
  0
ENDTAB
  0
TABLE
  2
VIEW
  5
6
330
0
100
AcDbSymbolTable
 70
     0
  0
ENDTAB
  0
TABLE
  2
UCS
  5
7
330
0
100
AcDbSymbolTable
 70
     0
  0
ENDTAB
  0
TABLE
  2
APPID
  5
9
330
0
100
AcDbSymbolTable
 70
     2
  0
APPID
  5
12
330
9
100
AcDbSymbolTableRecord
100
AcDbRegAppTableRecord
  2
ACAD
 70
     0
  0
APPID
  5
100001F0
330
9
100
AcDbSymbolTableRecord
100
AcDbRegAppTableRecord
  2
ACAD_MLEADERVER
 70
     0
  0
ENDTAB
  0
TABLE
  2
DIMSTYLE
  5
A
330
0
100
AcDbSymbolTable
 70
     1
  0
DIMSTYLE
105
27
330
A
100
AcDbSymbolTableRecord
100
AcDbDimStyleTableRecord
  2
STANDARD
 70
     0
  3

  4

  5

  6

  7

 40
1.0
 41
0.18
 42
0.0625
 43
0.38
 44
0.18
 45
0.0
 46
0.0
 47
0.0
 48
0.0
140
0.18
141
0.09
142
0.0
143
25.4
144
1.0
145
0.0
146
1.0
147
0.09
 71
     0
 72
     0
 73
     1
 74
     1
 75
     0
 76
     0
 77
     0
 78
     0
170
     0
171
     2
172
     0
173
     0
174
     0
175
     0
176
     0
177
     0
178
     0
270
     2
271
     4
272
     4
273
     2
274
     2
340
11
275
     0
280
     0
281
     0
282
     0
283
     1
284
     0
285
     0
286
     0
287
     3
288
     0
  0
ENDTAB
  0
TABLE
  2
BLOCK_RECORD
  5
1
330
0
100
AcDbSymbolTable
 70
     0
  0
BLOCK_RECORD
  5
1F
102
{ACAD_XDICTIONARY
360
100001BB
102
}
330
1
100
AcDbSymbolTableRecord
100
AcDbBlockTableRecord
  2
*MODEL_SPACE
  0
BLOCK_RECORD
  5
1B
330
1
100
AcDbSymbolTableRecord
100
AcDbBlockTableRecord
  2
*PAPER_SPACE
  0
ENDTAB
  0
ENDSEC
  0
SECTION
  2
BLOCKS
  0
BLOCK
  5
20
330
1F
100
AcDbEntity
  8
0
100
AcDbBlockBegin
  2
*MODEL_SPACE
 70
     0
 10
0.0
 20
0.0
 30
0.0
  3
*MODEL_SPACE
  1

  0
ENDBLK
  5
21
330
1F
100
AcDbEntity
  8
0
100
AcDbBlockEnd
  0
BLOCK
  5
1C
330
1B
100
AcDbEntity
 67
     1
  8
0
100
AcDbBlockBegin
  2
*PAPER_SPACE
 70
     0
 10
0.0
 20
0.0
 30
0.0
  3
*PAPER_SPACE
  1

  0
ENDBLK
  5
1D
330
1B
100
AcDbEntity
 67
     1
  8
0
100
AcDbBlockEnd
  0
ENDSEC
  0
SECTION
  2
ENTITIES
  0
LINE
  5
F42F3
102
{ACAD_XDICTIONARY
360
1000004B
102
}
330
1F
100
AcDbEntity
  8
VISIBLE
100
AcDbLine
 10
1.685333209967911
 20
2.739719406169445
 30
0.0
 11
1.810333209967911
 21
2.523213055223335
 31
0.0
  0
LINE
  5
F42F4
102
{ACAD_XDICTIONARY
360
1000004D
102
}
330
1F
100
AcDbEntity
  8
VISIBLE
100
AcDbLine
 10
3.209278579257495
 20
1.310168598600569
 30
0.0
 11
2.343253175473057
 21
0.8101685986005681
 31
0.0
  0
LINE
  5
F42F5
102
{ACAD_XDICTIONARY
360
1000004F
102
}
330
1F
100
AcDbEntity
  8
VISIBLE
100
AcDbLine
 10
2.209278579257491
 20
3.042219406169445
 30
0.0
 11
3.209278579257493
 21
1.310168598600565
 31
0.0
  0
LINE
  5
F42F6
102
{ACAD_XDICTIONARY
360
10000051
102
}
330
1F
100
AcDbEntity
  8
VISIBLE
100
AcDbLine
 10
1.343253175473054
 20
2.542219406169443
 30
0.0
 11
1.68533320996791
 21
2.739719406169446
 31
0.0
  0
LINE
  5
F42F7
102
{ACAD_XDICTIONARY
360
10000053
102
}
330
1F
100
AcDbEntity
  8
VISIBLE
100
AcDbLine
 10
2.343253175473055
 20
0.8101685986005648
 30
0.0
 11
1.343253175473054
 21
2.542219406169444
 31
0.0
  0
LINE
  5
F42F8
102
{ACAD_XDICTIONARY
360
10000055
102
}
330
1F
100
AcDbEntity
  8
VISIBLE
100
AcDbLine
 10
-2.0
 20
1.154700538379251
 30
0.0
 11
-1.702499999999998
 21
1.669985653630996
 31
0.0
  0
LINE
  5
F42F9
102
{ACAD_XDICTIONARY
360
10000057
102
}
330
1F
100
AcDbEntity
  8
VISIBLE
100
AcDbLine
 10
1.867198544762642
 20
2.844719406169446
 30
0.0
 11
2.209278579257496
 21
3.042219406169446
 31
0.0
  0
LINE
  5
F42FA
102
{ACAD_XDICTIONARY
360
10000059
102
}
330
1F
100
AcDbEntity
  8
VISIBLE
100
AcDbLine
 10
-0.0000000000000008
 20
4.618802153517008
 30
0.0
 11
2.0
 21
1.154700538379251
 31
0.0
  0
LINE
  5
F42FB
102
{ACAD_XDICTIONARY
360
1000005B
102
}
330
1F
100
AcDbEntity
  8
VISIBLE
100
AcDbLine
 10
-4.0
 20
-2.309401076758503
 30
0.0
 11
-2.0
 21
1.154700538379251
 31
0.0
  0
LINE
  5
F42FC
102
{ACAD_XDICTIONARY
360
1000005D
102
}
330
1F
100
AcDbEntity
  8
VISIBLE
100
AcDbLine
 10
1.992198544762643
 20
2.628213055223336
 30
0.0
 11
1.867198544762643
 21
2.844719406169445
 31
0.0
  0
LINE
  5
F42FD
102
{ACAD_XDICTIONARY
360
1000005F
102
}
330
1F
100
AcDbEntity
  8
VISIBLE
100
AcDbLine
 10
4.000000000000001
 20
-2.309401076758504
 30
0.0
 11
0.0
 21
-2.309401076758504
 31
0.0
  0
LINE
  5
F42FE
102
{ACAD_XDICTIONARY
360
10000061
102
}
330
1F
100
AcDbEntity
  8
VISIBLE
100
AcDbLine
 10
1.810333209967911
 20
2.523213055223335
 30
0.0
 11
1.992198544762643
 21
2.628213055223336
 31
0.0
  0
LINE
  5
F42FF
102
{ACAD_XDICTIONARY
360
10000063
102
}
330
1F
100
AcDbEntity
  8
VISIBLE
100
AcDbLine
 10
0.0307531754730555
 20
4.815536091103592
 30
0.0
 11
1.175753175473054
 21
4.815536091103592
 31
0.0
  0
CIRCLE
  5
F4300
102
{ACAD_XDICTIONARY
360
10000065
102
}
330
1F
100
AcDbEntity
  8
VISIBLE
100
AcDbCircle
 10
1.000000000000002
 20
-14.0574010767585
 30
0.0
 40
0.089
  0
CIRCLE
  5
F4301
102
{ACAD_XDICTIONARY
360
10000067
102
}
330
1F
100
AcDbEntity
  8
VISIBLE
100
AcDbCircle
 10
1.0
 20
-11.3074010767585
 30
0.0
 40
0.0625
  0
CIRCLE
  5
F4302
102
{ACAD_XDICTIONARY
360
10000069
102
}
330
1F
100
AcDbEntity
  8
VISIBLE
100
AcDbCircle
 10
-1.25
 20
-8.932401076758504
 30
0.0
 40
0.09375
  0
LINE
  5
F4303
102
{ACAD_XDICTIONARY
360
1000006B
102
}
330
1F
100
AcDbEntity
  8
VISIBLE
100
AcDbLine
 10
-1.749999999999998
 20
-10.8074010767585
 30
0.0
 11
-1.749999999999998
 21
-17.8074010767585
 31
0.0
  0
LINE
  5
F4304
102
{ACAD_XDICTIONARY
360
1000006D
102
}
330
1F
100
AcDbEntity
  8
VISIBLE
100
AcDbLine
 10
-0.7499999999999993
 20
-3.682401076758504
 30
0.0
 11
-0.7499999999999981
 21
-10.6824010767585
 31
0.0
  0
LINE
  5
F4305
102
{ACAD_XDICTIONARY
360
1000006F
102
}
330
1F
100
AcDbEntity
  8
VISIBLE
100
AcDbLine
 10
-1.75
 20
-3.682401076758504
 30
0.0
 11
-0.7499999999999993
 21
-3.682401076758504
 31
0.0
  0
LINE
  5
F4306
102
{ACAD_XDICTIONARY
360
10000071
102
}
330
1F
100
AcDbEntity
  8
VISIBLE
100
AcDbLine
 10
-1.75
 20
-3.682401076758504
 30
0.0
 11
-1.75
 21
-10.6824010767585
 31
0.0
  0
LINE
  5
F4307
102
{ACAD_XDICTIONARY
360
10000073
102
}
330
1F
100
AcDbEntity
  8
VISIBLE
100
AcDbLine
 10
-3.739278579257493
 20
0.3921816705890587
 30
0.0
 11
-2.739278579257492
 21
2.124232478157938
 31
0.0
  0
CIRCLE
  5
F4308
102
{ACAD_XDICTIONARY
360
10000075
102
}
330
1F
100
AcDbEntity
  8
VISIBLE
100
AcDbCircle
 10
-2.374999999999999
 20
-10.1824010767585
 30
0.0
 40
0.2500000000000001
  0
LINE
  5
F4309
102
{ACAD_XDICTIONARY
360
10000077
102
}
330
1F
100
AcDbEntity
  8
VISIBLE
100
AcDbLine
 10
-3.397198544762646
 20
0.1946816705890631
 30
0.0
 11
-3.739278579257496
 21
0.3921816705890611
 31
0.0
  0
LINE
  5
F430A
102
{ACAD_XDICTIONARY
360
10000079
102
}
330
1F
100
AcDbEntity
  8
VISIBLE
100
AcDbLine
 10
-2.874999999999999
 20
-10.6824010767585
 30
0.0
 11
-1.874999999999998
 21
-10.6824010767585
 31
0.0
  0
CIRCLE
  5
F430B
102
{ACAD_XDICTIONARY
360
1000007B
102
}
330
1F
100
AcDbEntity
  8
VISIBLE
100
AcDbCircle
 10
-2.375
 20
-5.432401076758504
 30
0.0
 40
0.09375
  0
CIRCLE
  5
F430C
102
{ACAD_XDICTIONARY
360
1000007D
102
}
330
1F
100
AcDbEntity
  8
VISIBLE
100
AcDbCircle
 10
3.250000000000001
 20
-5.432401076758504
 30
0.0
 40
0.09375
  0
CIRCLE
  5
F430D
102
{ACAD_XDICTIONARY
360
1000007F
102
}
330
1F
100
AcDbEntity
  8
VISIBLE
100
AcDbCircle
 10
-2.375
 20
-8.932401076758504
 30
0.0
 40
0.09375
  0
LINE
  5
F430E
102
{ACAD_XDICTIONARY
360
10000081
102
}
330
1F
100
AcDbEntity
  8
VISIBLE
100
AcDbLine
 10
-2.783299703922979
 20
2.293985653630993
 30
0.0
 11
-1.080799703922977
 21
5.242802153517007
 31
0.0
  0
CIRCLE
  5
F430F
102
{ACAD_XDICTIONARY
360
10000083
102
}
330
1F
100
AcDbEntity
  8
VISIBLE
100
AcDbCircle
 10
-1.25
 20
-5.432401076758504
 30
0.0
 40
0.09375
  0
LINE
  5
F4310
102
{ACAD_XDICTIONARY
360
10000085
102
}
330
1F
100
AcDbEntity
  8
VISIBLE
100
AcDbLine
 10
-1.080799703922977
 20
5.242802153517006
 30
0.0
 11
0.000000000000002
 21
4.618802153517006
 31
0.0
  0
LINE
  5
F4311
102
{ACAD_XDICTIONARY
360
10000087
102
}
330
1F
100
AcDbEntity
  8
VISIBLE
100
AcDbLine
 10
-1.875
 20
-3.682401076758504
 30
0.0
 11
-1.874999999999998
 21
-10.6824010767585
 31
0.0
  0
LINE
  5
F4312
102
{ACAD_XDICTIONARY
360
10000089
102
}
330
1F
100
AcDbEntity
  8
VISIBLE
100
AcDbLine
 10
-2.875
 20
-3.682401076758504
 30
0.0
 11
-1.875
 21
-3.682401076758504
 31
0.0
  0
LINE
  5
F4313
102
{ACAD_XDICTIONARY
360
1000008B
102
}
330
1F
100
AcDbEntity
  8
VISIBLE
100
AcDbLine
 10
-3.215333209967913
 20
0.0896816705890627
 30
0.0
 11
-3.090333209967913
 21
0.3061880215351728
 31
0.0
  0
CIRCLE
  5
F4314
102
{ACAD_XDICTIONARY
360
1000008D
102
}
330
1F
100
AcDbEntity
  8
VISIBLE
100
AcDbCircle
 10
-0.1249999999999993
 20
-8.932401076758504
 30
0.0
 40
0.09375
  0
LINE
  5
F4315
102
{ACAD_XDICTIONARY
360
1000008F
102
}
330
1F
100
AcDbEntity
  8
VISIBLE
100
AcDbLine
 10
3.378299703922979
 20
1.26341542312751
 30
0.0
 11
5.080799703922979
 21
-1.685401076758503
 31
0.0
  0
LINE
  5
F4316
102
{ACAD_XDICTIONARY
360
10000091
102
}
330
1F
100
AcDbEntity
  8
VISIBLE
100
AcDbLine
 10
-2.875
 20
-3.682401076758504
 30
0.0
 11
-2.875
 21
-10.6824010767585
 31
0.0
  0
LINE
  5
F4317
102
{ACAD_XDICTIONARY
360
10000093
102
}
330
1F
100
AcDbEntity
  8
VISIBLE
100
AcDbLine
 10
5.080799703922979
 20
-1.685401076758504
 30
0.0
 11
4.0
 21
-2.309401076758504
 31
0.0
  0
CIRCLE
  5
F4318
102
{ACAD_XDICTIONARY
360
10000095
102
}
330
1F
100
AcDbEntity
  8
VISIBLE
100
AcDbCircle
 10
-3.499999999999998
 20
-8.932401076758504
 30
0.0
 40
0.09375
  0
LINE
  5
F4319
102
{ACAD_XDICTIONARY
360
10000097
102
}
330
1F
100
AcDbEntity
  8
VISIBLE
100
AcDbLine
 10
-0.5949999999999979
 20
-3.557401076758503
 30
0.0
 11
-4.0
 21
-3.557401076758504
 31
0.0
  0
CIRCLE
  5
F431A
102
{ACAD_XDICTIONARY
360
10000099
102
}
330
1F
100
AcDbEntity
  8
VISIBLE
100
AcDbCircle
 10
-0.1249999999999983
 20
-12.5574010767585
 30
0.0
 40
0.09375
  0
LINE
  5
F431B
102
{ACAD_XDICTIONARY
360
1000009B
102
}
330
1F
100
AcDbEntity
  8
VISIBLE
100
AcDbLine
 10
2.297500000000003
 20
0.6394154231275112
 30
0.0
 11
3.378299703922986
 21
1.263415423127514
 31
0.0
  0
CIRCLE
  5
F431C
102
{ACAD_XDICTIONARY
360
1000009D
102
}
330
1F
100
AcDbEntity
  8
VISIBLE
100
AcDbCircle
 10
3.250000000000002
 20
-10.1824010767585
 30
0.0
 40
0.2500000000000001
  0
CIRCLE
  5
F431D
102
{ACAD_XDICTIONARY
360
1000009F
102
}
330
1F
100
AcDbEntity
  8
VISIBLE
100
AcDbCircle
 10
-3.5
 20
-4.182401076758504
 30
0.0
 40
0.2500000000000001
  0
LINE
  5
F431E
102
{ACAD_XDICTIONARY
360
100000A1
102
}
330
1F
100
AcDbEntity
  8
VISIBLE
100
AcDbLine
 10
-0.6249999999999983
 20
-10.8074010767585
 30
0.0
 11
0.3750000000000024
 21
-10.8074010767585
 31
0.0
  0
LINE
  5
F431F
102
{ACAD_XDICTIONARY
360
100000A3
102
}
330
1F
100
AcDbEntity
  8
VISIBLE
100
AcDbLine
 10
1.0825
 20
2.611598923241497
 30
0.0
 11
1.0825
 21
-0.1444010767585032
 31
0.0
  0
LINE
  5
F4320
102
{ACAD_XDICTIONARY
360
100000A5
102
}
330
1F
100
AcDbEntity
  8
VISIBLE
100
AcDbLine
 10
-1.082500000000001
 20
2.611598923241497
 30
0.0
 11
1.0825
 21
2.611598923241497
 31
0.0
  0
LINE
  5
F4321
102
{ACAD_XDICTIONARY
360
100000A7
102
}
330
1F
100
AcDbEntity
  8
VISIBLE
100
AcDbLine
 10
-1.0825
 20
-0.1444010767585036
 30
0.0
 11
-1.082500000000001
 21
2.611598923241497
 31
0.0
  0
LINE
  5
F4322
102
{ACAD_XDICTIONARY
360
100000A9
102
}
330
1F
100
AcDbEntity
  8
VISIBLE
100
AcDbLine
 10
1.575
 20
-0.1444010767585032
 30
0.0
 11
1.575000000000001
 21
-2.309401076758504
 31
0.0
  0
CIRCLE
  5
F4323
102
{ACAD_XDICTIONARY
360
100000AB
102
}
330
1F
100
AcDbEntity
  8
VISIBLE
100
AcDbCircle
 10
-1.25
 20
-4.182401076758504
 30
0.0
 40
0.2500000000000001
  0
LINE
  5
F4324
102
{ACAD_XDICTIONARY
360
100000AD
102
}
330
1F
100
AcDbEntity
  8
VISIBLE
100
AcDbLine
 10
-3.999999999999999
 20
-10.6824010767585
 30
0.0
 11
-2.999999999999999
 21
-10.6824010767585
 31
0.0
  0
CIRCLE
  5
F4325
102
{ACAD_XDICTIONARY
360
100000AF
102
}
330
1F
100
AcDbEntity
  8
VISIBLE
100
AcDbCircle
 10
-3.499999999999998
 20
-17.30740107675851
 30
0.0
 40
0.2500000000000001
  0
LINE
  5
F4326
102
{ACAD_XDICTIONARY
360
100000B1
102
}
330
1F
100
AcDbEntity
  8
VISIBLE
100
AcDbLine
 10
0.6032531754730555
 20
3.823937003770411
 30
0.0
 11
0.0307531754730559
 21
4.815536091103592
 31
0.0
  0
LINE
  5
F4327
102
{ACAD_XDICTIONARY
360
100000B3
102
}
330
1F
100
AcDbEntity
  8
VISIBLE
100
AcDbLine
 10
-3.0
 20
-3.682401076758504
 30
0.0
 11
-2.999999999999999
 21
-10.6824010767585
 31
0.0
  0
CIRCLE
  5
F4328
102
{ACAD_XDICTIONARY
360
100000B5
102
}
330
1F
100
AcDbEntity
  8
VISIBLE
100
AcDbCircle
 10
2.125000000000003
 20
-10.1824010767585
 30
0.0
 40
0.2500000000000001
  0
CIRCLE
  5
F4329
102
{ACAD_XDICTIONARY
360
100000B7
102
}
330
1F
100
AcDbEntity
  8
VISIBLE
100
AcDbCircle
 10
1.280753175473055
 20
4.09384825461656
 30
0.0
 40
0.0625
  0
LINE
  5
F432A
102
{ACAD_XDICTIONARY
360
100000B9
102
}
330
1F
100
AcDbEntity
  8
VISIBLE
100
AcDbLine
 10
-3.999999999999999
 20
-10.8074010767585
 30
0.0
 11
-2.999999999999998
 21
-10.8074010767585
 31
0.0
  0
LINE
  5
F432B
102
{ACAD_XDICTIONARY
360
100000BB
102
}
330
1F
100
AcDbEntity
  8
VISIBLE
100
AcDbLine
 10
-4.0
 20
-3.682401076758504
 30
0.0
 11
-3.0
 21
-3.682401076758504
 31
0.0
  0
LINE
  5
F432C
102
{ACAD_XDICTIONARY
360
100000BD
102
}
330
1F
100
AcDbEntity
  8
VISIBLE
100
AcDbLine
 10
1.385753175473054
 20
4.815536091103592
 30
0.0
 11
2.530753175473055
 21
4.815536091103592
 31
0.0
  0
CIRCLE
  5
F432D
102
{ACAD_XDICTIONARY
360
100000BF
102
}
330
1F
100
AcDbEntity
  8
VISIBLE
100
AcDbCircle
 10
-0.1249999999999983
 20
-10.1824010767585
 30
0.0
 40
0.2500000000000001
  0
LINE
  5
F432E
102
{ACAD_XDICTIONARY
360
100000C1
102
}
330
1F
100
AcDbEntity
  8
VISIBLE
100
AcDbLine
 10
-4.0
 20
-3.557401076758504
 30
0.0
 11
-4.000000000000001
 21
-2.309401076758504
 31
0.0
  0
CIRCLE
  5
F432F
102
{ACAD_XDICTIONARY
360
100000C3
102
}
330
1F
100
AcDbEntity
  8
VISIBLE
100
AcDbCircle
 10
-0.8950000000000001
 20
-2.184401076758504
 30
0.0
 40
0.125
  0
CIRCLE
  5
F4330
102
{ACAD_XDICTIONARY
360
100000C5
102
}
330
1F
100
AcDbEntity
  8
VISIBLE
100
AcDbCircle
 10
-1.495000000000001
 20
-2.184401076758504
 30
0.0
 40
0.125
  0
LINE
  5
F4331
102
{ACAD_XDICTIONARY
360
100000C7
102
}
330
1F
100
AcDbEntity
  8
VISIBLE
100
AcDbLine
 10
0.3750000000000007
 20
-3.682401076758504
 30
0.0
 11
0.375000000000002
 21
-10.6824010767585
 31
0.0
  0
CIRCLE
  5
F4332
102
{ACAD_XDICTIONARY
360
100000C9
102
}
330
1F
100
AcDbEntity
  8
VISIBLE
100
AcDbCircle
 10
2.639246824526947
 20
-0.2025074402784836
 30
0.0
 40
0.125
  0
LINE
  5
F4333
102
{ACAD_XDICTIONARY
360
100000CB
102
}
330
1F
100
AcDbEntity
  8
VISIBLE
100
AcDbLine
 10
-1.873253175473053
 20
1.624232478157939
 30
0.0
 11
-2.873253175473055
 21
-0.1078183294109398
 31
0.0
  0
CIRCLE
  5
F4334
102
{ACAD_XDICTIONARY
360
100000CD
102
}
330
1F
100
AcDbEntity
  8
VISIBLE
100
AcDbCircle
 10
-0.2200000000000003
 20
-2.934401076758508
 30
0.0
 40
0.094
  0
LINE
  5
F4335
102
{ACAD_XDICTIONARY
360
100000CF
102
}
330
1F
100
AcDbEntity
  8
VISIBLE
100
AcDbLine
 10
0.5000000000000002
 20
-10.8074010767585
 30
0.0
 11
1.500000000000001
 21
-10.8074010767585
 31
0.0
  0
CIRCLE
  5
F4336
102
{ACAD_XDICTIONARY
360
100000D1
102
}
330
1F
100
AcDbEntity
  8
VISIBLE
100
AcDbCircle
 10
-1.249999999999998
 20
-10.1824010767585
 30
0.0
 40
0.2500000000000001
  0
LINE
  5
F4337
102
{ACAD_XDICTIONARY
360
100000D3
102
}
330
1F
100
AcDbEntity
  8
VISIBLE
100
AcDbLine
 10
-3.272198544762646
 20
0.4111880215351718
 30
0.0
 11
-3.397198544762646
 21
0.1946816705890623
 31
0.0
  0
LINE
  5
F4338
102
{ACAD_XDICTIONARY
360
100000D5
102
}
330
1F
100
AcDbEntity
  8
VISIBLE
100
AcDbLine
 10
1.280753175473055
 20
2.650472581642496
 30
0.0
 11
0.7082531754730556
 21
3.642071668975678
 31
0.0
  0
LINE
  5
F4339
102
{ACAD_XDICTIONARY
360
100000D7
102
}
330
1F
100
AcDbEntity
  8
VISIBLE
100
AcDbLine
 10
-0.5950000000000003
 20
-2.309401076758504
 30
0.0
 11
-0.5950000000000003
 21
-3.557401076758505
 31
0.0
  0
CIRCLE
  5
F433A
102
{ACAD_XDICTIONARY
360
100000D9
102
}
330
1F
100
AcDbEntity
  8
VISIBLE
100
AcDbCircle
 10
-1.444246824526948
 20
1.867293274766326
 30
0.0
 40
0.125
  0
LINE
  5
F433B
102
{ACAD_XDICTIONARY
360
100000DB
102
}
330
1F
100
AcDbEntity
  8
VISIBLE
100
AcDbLine
 10
1.175753175473054
 20
4.815536091103592
 30
0.0
 11
1.175753175473054
 21
4.565536091103592
 31
0.0
  0
CIRCLE
  5
F433C
102
{ACAD_XDICTIONARY
360
100000DD
102
}
330
1F
100
AcDbEntity
  8
VISIBLE
100
AcDbCircle
 10
3.250000000000001
 20
-4.182401076758504
 30
0.0
 40
0.2500000000000001
  0
LINE
  5
F433D
102
{ACAD_XDICTIONARY
360
100000DF
102
}
330
1F
100
AcDbEntity
  8
VISIBLE
100
AcDbLine
 10
0.500000000000002
 20
-14.5574010767585
 30
0.0
 11
1.500000000000002
 21
-14.5574010767585
 31
0.0
  0
CIRCLE
  5
F433E
102
{ACAD_XDICTIONARY
360
100000E1
102
}
330
1F
100
AcDbEntity
  8
VISIBLE
100
AcDbCircle
 10
-3.499999999999999
 20
-10.1824010767585
 30
0.0
 40
0.2500000000000001
  0
CIRCLE
  5
F433F
102
{ACAD_XDICTIONARY
360
100000E3
102
}
330
1F
100
AcDbEntity
  8
VISIBLE
100
AcDbCircle
 10
-2.374999999999998
 20
-11.3074010767585
 30
0.0
 40
0.2500000000000001
  0
LINE
  5
F4340
102
{ACAD_XDICTIONARY
360
100000E5
102
}
330
1F
100
AcDbEntity
  8
VISIBLE
100
AcDbLine
 10
-1.575
 20
-2.309401076758504
 30
0.0
 11
-1.575
 21
-0.1444010767585038
 31
0.0
  0
LINE
  5
F4341
102
{ACAD_XDICTIONARY
360
100000E7
102
}
330
1F
100
AcDbEntity
  8
VISIBLE
100
AcDbLine
 10
-4.0
 20
-3.682401076758504
 30
0.0
 11
-4.0
 21
-10.6824010767585
 31
0.0
  0
LINE
  5
F4342
102
{ACAD_XDICTIONARY
360
100000E9
102
}
330
1F
100
AcDbEntity
  8
VISIBLE
100
AcDbLine
 10
0.0
 20
-2.309401076758504
 30
0.0
 11
-0.5949999999999976
 21
-2.309401076758504
 31
0.0
  0
CIRCLE
  5
F4343
102
{ACAD_XDICTIONARY
360
100000EB
102
}
330
1F
100
AcDbEntity
  8
VISIBLE
100
AcDbCircle
 10
-1.144246824526948
 20
2.38690851703699
 30
0.0
 40
0.125
  0
LINE
  5
F4344
102
{ACAD_XDICTIONARY
360
100000ED
102
}
330
1F
100
AcDbEntity
  8
VISIBLE
100
AcDbLine
 10
0.7082531754730553
 20
3.642071668975678
 30
0.0
 11
0.9247595264191653
 21
3.767071668975678
 31
0.0
  0
LINE
  5
F4345
102
{ACAD_XDICTIONARY
360
100000EF
102
}
330
1F
100
AcDbEntity
  8
VISIBLE
100
AcDbLine
 10
-0.4700000000000005
 20
-3.434401076758505
 30
0.0
 11
-0.4700000000000005
 21
-2.434401076758505
 31
0.0
  0
LINE
  5
F4346
102
{ACAD_XDICTIONARY
360
100000F1
102
}
330
1F
100
AcDbEntity
  8
VISIBLE
100
AcDbLine
 10
1.53
 20
-2.829401076758509
 30
0.0
 11
1.28
 21
-2.829401076758509
 31
0.0
  0
LINE
  5
F4347
102
{ACAD_XDICTIONARY
360
100000F3
102
}
330
1F
100
AcDbEntity
  8
VISIBLE
100
AcDbLine
 10
1.636746824526946
 20
3.767071668975678
 30
0.0
 11
1.853253175473055
 21
3.642071668975677
 31
0.0
  0
LINE
  5
F4348
102
{ACAD_XDICTIONARY
360
100000F5
102
}
330
1F
100
AcDbEntity
  8
VISIBLE
100
AcDbLine
 10
1.530000000000001
 20
-2.4344010767585
 30
0.0
 11
1.530000000000001
 21
-2.829401076758508
 31
0.0
  0
CIRCLE
  5
F4349
102
{ACAD_XDICTIONARY
360
100000F7
102
}
330
1F
100
AcDbEntity
  8
VISIBLE
100
AcDbCircle
 10
2.339246824526948
 20
0.3171078019921802
 30
0.0
 40
0.125
  0
LINE
  5
F434A
102
{ACAD_XDICTIONARY
360
100000F9
102
}
330
1F
100
AcDbEntity
  8
VISIBLE
100
AcDbLine
 10
1.280000000000001
 20
-3.03940107675851
 30
0.0
 11
1.53
 21
-3.03940107675851
 31
0.0
  0
LINE
  5
F434B
102
{ACAD_XDICTIONARY
360
100000FB
102
}
330
1F
100
AcDbEntity
  8
VISIBLE
100
AcDbLine
 10
0.8197595264191654
 20
3.94893700377041
 30
0.0
 11
0.6032531754730553
 21
3.82393700377041
 31
0.0
  0
CIRCLE
  5
F434C
102
{ACAD_XDICTIONARY
360
100000FD
102
}
330
1F
100
AcDbEntity
  8
VISIBLE
100
AcDbCircle
 10
2.125
 20
-11.3074010767585
 30
0.0
 40
0.0625
  0
LINE
  5
F434D
102
{ACAD_XDICTIONARY
360
100000FF
102
}
330
1F
100
AcDbEntity
  8
VISIBLE
100
AcDbLine
 10
1.175753175473054
 20
4.565536091103592
 30
0.0
 11
1.385753175473055
 21
4.565536091103592
 31
0.0
  0
CIRCLE
  5
F434E
102
{ACAD_XDICTIONARY
360
10000101
102
}
330
1F
100
AcDbEntity
  8
VISIBLE
100
AcDbCircle
 10
2.125000000000002
 20
-14.0574010767585
 30
0.0
 40
0.089
  0
LINE
  5
F434F
102
{ACAD_XDICTIONARY
360
10000103
102
}
330
1F
100
AcDbEntity
  8
VISIBLE
100
AcDbLine
 10
-0.4700000000000005
 20
-2.434401076758502
 30
0.0
 11
1.530000000000003
 21
-2.434401076758504
 31
0.0
  0
LINE
  5
F4350
102
{ACAD_XDICTIONARY
360
10000105
102
}
330
1F
100
AcDbEntity
  8
VISIBLE
100
AcDbLine
 10
0.9247595264191647
 20
3.767071668975678
 30
0.0
 11
0.8197595264191645
 21
3.94893700377041
 31
0.0
  0
LINE
  5
F4351
102
{ACAD_XDICTIONARY
360
10000107
102
}
330
1F
100
AcDbEntity
  8
VISIBLE
100
AcDbLine
 10
1.385753175473054
 20
4.565536091103592
 30
0.0
 11
1.385753175473054
 21
4.815536091103592
 31
0.0
  0
CIRCLE
  5
F4352
102
{ACAD_XDICTIONARY
360
10000109
102
}
330
1F
100
AcDbEntity
  8
VISIBLE
100
AcDbCircle
 10
-3.499999999999998
 20
-11.3074010767585
 30
0.0
 40
0.2500000000000001
  0
CIRCLE
  5
F4353
102
{ACAD_XDICTIONARY
360
1000010B
102
}
330
1F
100
AcDbEntity
  8
VISIBLE
100
AcDbCircle
 10
2.651265877365279
 20
1.276674949546676
 30
0.0
 40
0.094
  0
LINE
  5
F4354
102
{ACAD_XDICTIONARY
360
1000010D
102
}
330
1F
100
AcDbEntity
  8
VISIBLE
100
AcDbLine
 10
1.530000000000001
 20
-3.039401076758508
 30
0.0
 11
1.530000000000001
 21
-3.434401076758505
 31
0.0
  0
CIRCLE
  5
F4355
102
{ACAD_XDICTIONARY
360
1000010F
102
}
330
1F
100
AcDbEntity
  8
VISIBLE
100
AcDbCircle
 10
-2.375
 20
-4.182401076758504
 30
0.0
 40
0.2500000000000001
  0
LINE
  5
F4356
102
{ACAD_XDICTIONARY
360
10000111
102
}
330
1F
100
AcDbEntity
  8
VISIBLE
100
AcDbLine
 10
1.958253175473055
 20
3.823937003770409
 30
0.0
 11
1.741746824526945
 21
3.94893700377041
 31
0.0
  0
LINE
  5
F4357
102
{ACAD_XDICTIONARY
360
10000113
102
}
330
1F
100
AcDbEntity
  8
VISIBLE
100
AcDbLine
 10
-3.090333209967913
 20
0.3061880215351735
 30
0.0
 11
-3.272198544762646
 21
0.4111880215351737
 31
0.0
  0
CIRCLE
  5
F4358
102
{ACAD_XDICTIONARY
360
10000115
102
}
330
1F
100
AcDbEntity
  8
VISIBLE
100
AcDbCircle
 10
-3.5
 20
-5.432401076758504
 30
0.0
 40
0.09375
  0
LINE
  5
F4359
102
{ACAD_XDICTIONARY
360
10000117
102
}
330
1F
100
AcDbEntity
  8
VISIBLE
100
AcDbLine
 10
2.530753175473053
 20
4.815536091103593
 30
0.0
 11
1.958253175473053
 21
3.823937003770411
 31
0.0
  0
LINE
  5
F435A
102
{ACAD_XDICTIONARY
360
10000119
102
}
330
1F
100
AcDbEntity
  8
VISIBLE
100
AcDbLine
 10
-2.739278579257495
 20
2.124232478157939
 30
0.0
 11
-1.873253175473055
 21
1.624232478157939
 31
0.0
  0
LINE
  5
F435B
102
{ACAD_XDICTIONARY
360
1000011B
102
}
330
1F
100
AcDbEntity
  8
VISIBLE
100
AcDbLine
 10
2.0
 20
1.154700538379251
 30
0.0
 11
2.2975
 21
0.63941542312751
 31
0.0
  0
LINE
  5
F435C
102
{ACAD_XDICTIONARY
360
1000011D
102
}
330
1F
100
AcDbEntity
  8
VISIBLE
100
AcDbLine
 10
1.741746824526945
 20
3.948937003770411
 30
0.0
 11
1.636746824526945
 21
3.767071668975678
 31
0.0
  0
LINE
  5
F435D
102
{ACAD_XDICTIONARY
360
1000011F
102
}
330
1F
100
AcDbEntity
  8
VISIBLE
100
AcDbLine
 10
1.280000000000002
 20
-2.829401076758508
 30
0.0
 11
1.280000000000002
 21
-3.039401076758508
 31
0.0
  0
CIRCLE
  5
F435E
102
{ACAD_XDICTIONARY
360
10000121
102
}
330
1F
100
AcDbEntity
  8
VISIBLE
100
AcDbCircle
 10
1.000000000000001
 20
-4.182401076758504
 30
0.0
 40
0.2500000000000001
  0
LINE
  5
F435F
102
{ACAD_XDICTIONARY
360
10000123
102
}
330
1F
100
AcDbEntity
  8
VISIBLE
100
AcDbLine
 10
-0.6249999999999994
 20
-3.682401076758504
 30
0.0
 11
-0.6249999999999994
 21
-10.6824010767585
 31
0.0
  0
LINE
  5
F4360
102
{ACAD_XDICTIONARY
360
10000125
102
}
330
1F
100
AcDbEntity
  8
VISIBLE
100
AcDbLine
 10
-0.6249999999999994
 20
-3.682401076758504
 30
0.0
 11
0.3750000000000008
 21
-3.682401076758504
 31
0.0
  0
LINE
  5
F4361
102
{ACAD_XDICTIONARY
360
10000127
102
}
330
1F
100
AcDbEntity
  8
VISIBLE
100
AcDbLine
 10
-1.575
 20
-0.1444010767585038
 30
0.0
 11
1.575
 21
-0.1444010767585032
 31
0.0
  0
CIRCLE
  5
F4362
102
{ACAD_XDICTIONARY
360
10000129
102
}
330
1F
100
AcDbEntity
  8
VISIBLE
100
AcDbCircle
 10
-0.1249999999999993
 20
-4.182401076758504
 30
0.0
 40
0.2500000000000001
  0
LINE
  5
F4363
102
{ACAD_XDICTIONARY
360
1000012B
102
}
330
1F
100
AcDbEntity
  8
VISIBLE
100
AcDbLine
 10
2.750000000000001
 20
-3.682401076758504
 30
0.0
 11
2.750000000000001
 21
-10.6824010767585
 31
0.0
  0
CIRCLE
  5
F4364
102
{ACAD_XDICTIONARY
360
1000012D
102
}
330
1F
100
AcDbEntity
  8
VISIBLE
100
AcDbCircle
 10
-0.1249999999999993
 20
-5.432401076758504
 30
0.0
 40
0.09375
  0
LINE
  5
F4365
102
{ACAD_XDICTIONARY
360
1000012F
102
}
330
1F
100
AcDbEntity
  8
VISIBLE
100
AcDbLine
 10
-0.6249999999999983
 20
-10.6824010767585
 30
0.0
 11
0.3750000000000019
 21
-10.6824010767585
 31
0.0
  0
LINE
  5
F4366
102
{ACAD_XDICTIONARY
360
10000131
102
}
330
1F
100
AcDbEntity
  8
VISIBLE
100
AcDbLine
 10
0.5000000000000007
 20
-3.682401076758504
 30
0.0
 11
0.5000000000000007
 21
-10.6824010767585
 31
0.0
  0
LINE
  5
F4367
102
{ACAD_XDICTIONARY
360
10000133
102
}
330
1F
100
AcDbEntity
  8
VISIBLE
100
AcDbLine
 10
0.5000000000000007
 20
-3.682401076758504
 30
0.0
 11
1.500000000000001
 21
-3.682401076758504
 31
0.0
  0
LINE
  5
F4368
102
{ACAD_XDICTIONARY
360
10000135
102
}
330
1F
100
AcDbEntity
  8
VISIBLE
100
AcDbLine
 10
1.500000000000001
 20
-3.682401076758504
 30
0.0
 11
1.500000000000002
 21
-10.6824010767585
 31
0.0
  0
LINE
  5
F4369
102
{ACAD_XDICTIONARY
360
10000137
102
}
330
1F
100
AcDbEntity
  8
VISIBLE
100
AcDbLine
 10
1.530000000000004
 20
-3.434401076758502
 30
0.0
 11
-0.4699999999999983
 21
-3.434401076758502
 31
0.0
  0
CIRCLE
  5
F436A
102
{ACAD_XDICTIONARY
360
10000139
102
}
330
1F
100
AcDbEntity
  8
VISIBLE
100
AcDbCircle
 10
-2.374999999999997
 20
-16.05740107675851
 30
0.0
 40
0.09375
  0
LINE
  5
F436B
102
{ACAD_XDICTIONARY
360
1000013B
102
}
330
1F
100
AcDbEntity
  8
VISIBLE
100
AcDbLine
 10
3.750000000000001
 20
-3.682401076758504
 30
0.0
 11
3.750000000000002
 21
-10.6824010767585
 31
0.0
  0
CIRCLE
  5
F436C
102
{ACAD_XDICTIONARY
360
1000013D
102
}
330
1F
100
AcDbEntity
  8
VISIBLE
100
AcDbCircle
 10
1.000000000000001
 20
-5.432401076758504
 30
0.0
 40
0.09375
  0
LINE
  5
F436D
102
{ACAD_XDICTIONARY
360
1000013F
102
}
330
1F
100
AcDbEntity
  8
VISIBLE
100
AcDbLine
 10
2.75
 20
-10.8074010767585
 30
0.0
 11
2.75
 21
-14.5574010767585
 31
0.0
  0
LINE
  5
F436E
102
{ACAD_XDICTIONARY
360
10000141
102
}
330
1F
100
AcDbEntity
  8
VISIBLE
100
AcDbLine
 10
-1.749999999999998
 20
-10.8074010767585
 30
0.0
 11
-0.7499999999999978
 21
-10.8074010767585
 31
0.0
  0
LINE
  5
F436F
102
{ACAD_XDICTIONARY
360
10000143
102
}
330
1F
100
AcDbEntity
  8
VISIBLE
100
AcDbLine
 10
0.5000000000000018
 20
-10.6824010767585
 30
0.0
 11
1.500000000000002
 21
-10.6824010767585
 31
0.0
  0
LINE
  5
F4370
102
{ACAD_XDICTIONARY
360
10000145
102
}
330
1F
100
AcDbEntity
  8
VISIBLE
100
AcDbLine
 10
1.625000000000001
 20
-3.682401076758504
 30
0.0
 11
1.625000000000001
 21
-10.6824010767585
 31
0.0
  0
CIRCLE
  5
F4371
102
{ACAD_XDICTIONARY
360
10000147
102
}
330
1F
100
AcDbEntity
  8
VISIBLE
100
AcDbCircle
 10
4.375000000000001
 20
-8.932401076758504
 30
0.0
 40
0.09375
  0
LINE
  5
F4372
102
{ACAD_XDICTIONARY
360
10000149
102
}
330
1F
100
AcDbEntity
  8
VISIBLE
100
AcDbLine
 10
1.625000000000001
 20
-3.682401076758504
 30
0.0
 11
2.625000000000002
 21
-3.682401076758504
 31
0.0
  0
LINE
  5
F4373
102
{ACAD_XDICTIONARY
360
1000014B
102
}
330
1F
100
AcDbEntity
  8
VISIBLE
100
AcDbLine
 10
2.625000000000002
 20
-3.682401076758504
 30
0.0
 11
2.625000000000003
 21
-10.6824010767585
 31
0.0
  0
LINE
  5
F4374
102
{ACAD_XDICTIONARY
360
1000014D
102
}
330
1F
100
AcDbEntity
  8
VISIBLE
100
AcDbLine
 10
1.853253175473053
 20
3.642071668975678
 30
0.0
 11
1.280753175473054
 21
2.650472581642497
 31
0.0
  0
CIRCLE
  5
F4375
102
{ACAD_XDICTIONARY
360
1000014F
102
}
330
1F
100
AcDbEntity
  8
VISIBLE
100
AcDbCircle
 10
2.125000000000001
 20
-5.432401076758504
 30
0.0
 40
0.09375
  0
CIRCLE
  5
F4376
102
{ACAD_XDICTIONARY
360
10000151
102
}
330
1F
100
AcDbEntity
  8
VISIBLE
100
AcDbCircle
 10
2.125000000000001
 20
-4.182401076758504
 30
0.0
 40
0.2500000000000001
  0
CIRCLE
  5
F4377
102
{ACAD_XDICTIONARY
360
10000153
102
}
330
1F
100
AcDbEntity
  8
VISIBLE
100
AcDbCircle
 10
2.125000000000001
 20
-8.932401076758504
 30
0.0
 40
0.09375
  0
LINE
  5
F4378
102
{ACAD_XDICTIONARY
360
10000155
102
}
330
1F
100
AcDbEntity
  8
VISIBLE
100
AcDbLine
 10
1.625000000000002
 20
-10.6824010767585
 30
0.0
 11
2.625000000000003
 21
-10.6824010767585
 31
0.0
  0
CIRCLE
  5
F4379
102
{ACAD_XDICTIONARY
360
10000157
102
}
330
1F
100
AcDbEntity
  8
VISIBLE
100
AcDbCircle
 10
-1.249999999999998
 20
-12.5574010767585
 30
0.0
 40
0.09375
  0
LINE
  5
F437A
102
{ACAD_XDICTIONARY
360
10000159
102
}
330
1F
100
AcDbEntity
  8
VISIBLE
100
AcDbLine
 10
2.750000000000001
 20
-3.682401076758504
 30
0.0
 11
3.750000000000001
 21
-3.682401076758504
 31
0.0
  0
CIRCLE
  5
F437B
102
{ACAD_XDICTIONARY
360
1000015B
102
}
330
1F
100
AcDbEntity
  8
VISIBLE
100
AcDbCircle
 10
3.250000000000001
 20
-8.932401076758504
 30
0.0
 40
0.09375
  0
LINE
  5
F437C
102
{ACAD_XDICTIONARY
360
1000015D
102
}
330
1F
100
AcDbEntity
  8
VISIBLE
100
AcDbLine
 10
2.75
 20
-10.8074010767585
 30
0.0
 11
3.750000000000001
 21
-10.8074010767585
 31
0.0
  0
LINE
  5
F437D
102
{ACAD_XDICTIONARY
360
1000015F
102
}
330
1F
100
AcDbEntity
  8
VISIBLE
100
AcDbLine
 10
2.750000000000002
 20
-10.6824010767585
 30
0.0
 11
3.750000000000002
 21
-10.6824010767585
 31
0.0
  0
LINE
  5
F437E
102
{ACAD_XDICTIONARY
360
10000161
102
}
330
1F
100
AcDbEntity
  8
VISIBLE
100
AcDbLine
 10
3.875
 20
-3.682401076758504
 30
0.0
 11
3.875
 21
-10.6824010767585
 31
0.0
  0
LINE
  5
F437F
102
{ACAD_XDICTIONARY
360
10000163
102
}
330
1F
100
AcDbEntity
  8
VISIBLE
100
AcDbLine
 10
3.875
 20
-3.682401076758504
 30
0.0
 11
4.875000000000001
 21
-3.682401076758504
 31
0.0
  0
LINE
  5
F4380
102
{ACAD_XDICTIONARY
360
10000165
102
}
330
1F
100
AcDbEntity
  8
VISIBLE
100
AcDbLine
 10
4.875000000000001
 20
-3.682401076758504
 30
0.0
 11
4.875000000000002
 21
-10.6824010767585
 31
0.0
  0
CIRCLE
  5
F4381
102
{ACAD_XDICTIONARY
360
10000167
102
}
330
1F
100
AcDbEntity
  8
VISIBLE
100
AcDbCircle
 10
4.375000000000001
 20
-4.182401076758504
 30
0.0
 40
0.2500000000000001
  0
CIRCLE
  5
F4382
102
{ACAD_XDICTIONARY
360
10000169
102
}
330
1F
100
AcDbEntity
  8
VISIBLE
100
AcDbCircle
 10
-1.249999999999997
 20
-17.30740107675851
 30
0.0
 40
0.2500000000000001
  0
LINE
  5
F4383
102
{ACAD_XDICTIONARY
360
1000016B
102
}
330
1F
100
AcDbEntity
  8
VISIBLE
100
AcDbLine
 10
-2.874999999999999
 20
-10.8074010767585
 30
0.0
 11
-2.874999999999999
 21
-17.8074010767585
 31
0.0
  0
CIRCLE
  5
F4384
102
{ACAD_XDICTIONARY
360
1000016D
102
}
330
1F
100
AcDbEntity
  8
VISIBLE
100
AcDbCircle
 10
4.375000000000001
 20
-5.432401076758504
 30
0.0
 40
0.09375
  0
CIRCLE
  5
F4385
102
{ACAD_XDICTIONARY
360
1000016F
102
}
330
1F
100
AcDbEntity
  8
VISIBLE
100
AcDbCircle
 10
4.375000000000002
 20
-10.1824010767585
 30
0.0
 40
0.2500000000000001
  0
LINE
  5
F4386
102
{ACAD_XDICTIONARY
360
10000171
102
}
330
1F
100
AcDbEntity
  8
VISIBLE
100
AcDbLine
 10
3.875000000000002
 20
-10.6824010767585
 30
0.0
 11
4.875000000000002
 21
-10.6824010767585
 31
0.0
  0
LINE
  5
F4387
102
{ACAD_XDICTIONARY
360
10000173
102
}
330
1F
100
AcDbEntity
  8
VISIBLE
100
AcDbLine
 10
-3.999999999999999
 20
-17.8074010767585
 30
0.0
 11
-2.999999999999996
 21
-17.8074010767585
 31
0.0
  0
LINE
  5
F4388
102
{ACAD_XDICTIONARY
360
10000175
102
}
330
1F
100
AcDbEntity
  8
VISIBLE
100
AcDbLine
 10
-3.999999999999999
 20
-10.8074010767585
 30
0.0
 11
-3.999999999999999
 21
-17.8074010767585
 31
0.0
  0
CIRCLE
  5
F4389
102
{ACAD_XDICTIONARY
360
10000177
102
}
330
1F
100
AcDbEntity
  8
VISIBLE
100
AcDbCircle
 10
-0.1249999999999972
 20
-17.30740107675851
 30
0.0
 40
0.2500000000000001
  0
LINE
  5
F438A
102
{ACAD_XDICTIONARY
360
10000179
102
}
330
1F
100
AcDbEntity
  8
VISIBLE
100
AcDbLine
 10
-2.999999999999999
 20
-10.8074010767585
 30
0.0
 11
-2.999999999999997
 21
-17.8074010767585
 31
0.0
  0
CIRCLE
  5
F438B
102
{ACAD_XDICTIONARY
360
1000017B
102
}
330
1F
100
AcDbEntity
  8
VISIBLE
100
AcDbCircle
 10
-3.499999999999998
 20
-16.05740107675851
 30
0.0
 40
0.09375
  0
CIRCLE
  5
F438C
102
{ACAD_XDICTIONARY
360
1000017D
102
}
330
1F
100
AcDbEntity
  8
VISIBLE
100
AcDbCircle
 10
-3.499999999999999
 20
-12.5574010767585
 30
0.0
 40
0.09375
  0
LINE
  5
F438D
102
{ACAD_XDICTIONARY
360
1000017F
102
}
330
1F
100
AcDbEntity
  8
VISIBLE
100
AcDbLine
 10
1.625
 20
-10.8074010767585
 30
0.0
 11
1.625000000000001
 21
-14.5574010767585
 31
0.0
  0
LINE
  5
F438E
102
{ACAD_XDICTIONARY
360
10000181
102
}
330
1F
100
AcDbEntity
  8
VISIBLE
100
AcDbLine
 10
-1.702499999999999
 20
1.669985653630997
 30
0.0
 11
-2.78329970392298
 21
2.293985653630997
 31
0.0
  0
CIRCLE
  5
F438F
102
{ACAD_XDICTIONARY
360
10000183
102
}
330
1F
100
AcDbEntity
  8
VISIBLE
100
AcDbCircle
 10
-2.374999999999999
 20
-12.5574010767585
 30
0.0
 40
0.09375
  0
LINE
  5
F4390
102
{ACAD_XDICTIONARY
360
10000185
102
}
330
1F
100
AcDbEntity
  8
VISIBLE
100
AcDbLine
 10
-2.874999999999999
 20
-10.8074010767585
 30
0.0
 11
-1.874999999999998
 21
-10.8074010767585
 31
0.0
  0
LINE
  5
F4391
102
{ACAD_XDICTIONARY
360
10000187
102
}
330
1F
100
AcDbEntity
  8
VISIBLE
100
AcDbLine
 10
-2.874999999999999
 20
-17.8074010767585
 30
0.0
 11
-1.874999999999996
 21
-17.8074010767585
 31
0.0
  0
CIRCLE
  5
F4392
102
{ACAD_XDICTIONARY
360
10000189
102
}
330
1F
100
AcDbEntity
  8
VISIBLE
100
AcDbCircle
 10
1.000000000000001
 20
-8.932401076758504
 30
0.0
 40
0.09375
  0
LINE
  5
F4393
102
{ACAD_XDICTIONARY
360
1000018B
102
}
330
1F
100
AcDbEntity
  8
VISIBLE
100
AcDbLine
 10
-1.874999999999999
 20
-10.8074010767585
 30
0.0
 11
-1.874999999999997
 21
-17.8074010767585
 31
0.0
  0
LINE
  5
F4394
102
{ACAD_XDICTIONARY
360
1000018D
102
}
330
1F
100
AcDbEntity
  8
VISIBLE
100
AcDbLine
 10
-2.873253175473053
 20
-0.1078183294109404
 30
0.0
 11
-3.215333209967913
 21
0.0896816705890632
 31
0.0
  0
CIRCLE
  5
F4395
102
{ACAD_XDICTIONARY
360
1000018F
102
}
330
1F
100
AcDbEntity
  8
VISIBLE
100
AcDbCircle
 10
-2.431265877365277
 20
1.657726127211832
 30
0.0
 40
0.094
  0
CIRCLE
  5
F4396
102
{ACAD_XDICTIONARY
360
10000191
102
}
330
1F
100
AcDbEntity
  8
VISIBLE
100
AcDbCircle
 10
-2.374999999999997
 20
-17.30740107675851
 30
0.0
 40
0.2500000000000001
  0
LINE
  5
F4397
102
{ACAD_XDICTIONARY
360
10000193
102
}
330
1F
100
AcDbEntity
  8
VISIBLE
100
AcDbLine
 10
-1.749999999999998
 20
-10.6824010767585
 30
0.0
 11
-0.7499999999999983
 21
-10.6824010767585
 31
0.0
  0
CIRCLE
  5
F4398
102
{ACAD_XDICTIONARY
360
10000195
102
}
330
1F
100
AcDbEntity
  8
VISIBLE
100
AcDbCircle
 10
-1.249999999999998
 20
-11.3074010767585
 30
0.0
 40
0.2500000000000001
  0
LINE
  5
F4399
102
{ACAD_XDICTIONARY
360
10000197
102
}
330
1F
100
AcDbEntity
  8
VISIBLE
100
AcDbLine
 10
-1.749999999999998
 20
-17.8074010767585
 30
0.0
 11
-0.7499999999999961
 21
-17.8074010767585
 31
0.0
  0
LINE
  5
F439A
102
{ACAD_XDICTIONARY
360
10000199
102
}
330
1F
100
AcDbEntity
  8
VISIBLE
100
AcDbLine
 10
-0.7499999999999986
 20
-10.8074010767585
 30
0.0
 11
-0.7499999999999973
 21
-17.8074010767585
 31
0.0
  0
CIRCLE
  5
F439B
102
{ACAD_XDICTIONARY
360
1000019B
102
}
330
1F
100
AcDbEntity
  8
VISIBLE
100
AcDbCircle
 10
-0.1249999999999977
 20
-11.3074010767585
 30
0.0
 40
0.2500000000000001
  0
CIRCLE
  5
F439C
102
{ACAD_XDICTIONARY
360
1000019D
102
}
330
1F
100
AcDbEntity
  8
VISIBLE
100
AcDbCircle
 10
1.000000000000002
 20
-10.1824010767585
 30
0.0
 40
0.2500000000000001
  0
LINE
  5
F439D
102
{ACAD_XDICTIONARY
360
1000019F
102
}
330
1F
100
AcDbEntity
  8
VISIBLE
100
AcDbLine
 10
1.625
 20
-10.8074010767585
 30
0.0
 11
2.625
 21
-10.8074010767585
 31
0.0
  0
LINE
  5
F439E
102
{ACAD_XDICTIONARY
360
100001A1
102
}
330
1F
100
AcDbEntity
  8
VISIBLE
100
AcDbLine
 10
1.625000000000002
 20
-14.5574010767585
 30
0.0
 11
2.625000000000003
 21
-14.5574010767585
 31
0.0
  0
LINE
  5
F439F
102
{ACAD_XDICTIONARY
360
100001A3
102
}
330
1F
100
AcDbEntity
  8
VISIBLE
100
AcDbLine
 10
-0.6249999999999983
 20
-17.8074010767585
 30
0.0
 11
0.3750000000000041
 21
-17.8074010767585
 31
0.0
  0
LINE
  5
F43A0
102
{ACAD_XDICTIONARY
360
100001A5
102
}
330
1F
100
AcDbEntity
  8
VISIBLE
100
AcDbLine
 10
-0.6249999999999983
 20
-10.8074010767585
 30
0.0
 11
-0.6249999999999983
 21
-17.8074010767585
 31
0.0
  0
LINE
  5
F43A1
102
{ACAD_XDICTIONARY
360
100001A7
102
}
330
1F
100
AcDbEntity
  8
VISIBLE
100
AcDbLine
 10
2.625
 20
-10.8074010767585
 30
0.0
 11
2.625
 21
-14.5574010767585
 31
0.0
  0
LINE
  5
F43A2
102
{ACAD_XDICTIONARY
360
100001A9
102
}
330
1F
100
AcDbEntity
  8
VISIBLE
100
AcDbLine
 10
0.3750000000000016
 20
-10.8074010767585
 30
0.0
 11
0.3750000000000029
 21
-17.8074010767585
 31
0.0
  0
CIRCLE
  5
F43A3
102
{ACAD_XDICTIONARY
360
100001AB
102
}
330
1F
100
AcDbEntity
  8
VISIBLE
100
AcDbCircle
 10
3.250000000000002
 20
-14.0574010767585
 30
0.0
 40
0.089
  0
CIRCLE
  5
F43A4
102
{ACAD_XDICTIONARY
360
100001AD
102
}
330
1F
100
AcDbEntity
  8
VISIBLE
100
AcDbCircle
 10
-0.1249999999999972
 20
-16.05740107675851
 30
0.0
 40
0.09375
  0
LINE
  5
F43A5
102
{ACAD_XDICTIONARY
360
100001AF
102
}
330
1F
100
AcDbEntity
  8
VISIBLE
100
AcDbLine
 10
2.750000000000002
 20
-14.5574010767585
 30
0.0
 11
3.750000000000002
 21
-14.5574010767585
 31
0.0
  0
LINE
  5
F43A6
102
{ACAD_XDICTIONARY
360
100001B1
102
}
330
1F
100
AcDbEntity
  8
VISIBLE
100
AcDbLine
 10
3.750000000000001
 20
-10.8074010767585
 30
0.0
 11
3.750000000000001
 21
-14.5574010767585
 31
0.0
  0
LINE
  5
F43A7
102
{ACAD_XDICTIONARY
360
100001B3
102
}
330
1F
100
AcDbEntity
  8
VISIBLE
100
AcDbLine
 10
0.5000000000000002
 20
-10.8074010767585
 30
0.0
 11
0.5000000000000004
 21
-14.5574010767585
 31
0.0
  0
CIRCLE
  5
F43A8
102
{ACAD_XDICTIONARY
360
100001B5
102
}
330
1F
100
AcDbEntity
  8
VISIBLE
100
AcDbCircle
 10
3.25
 20
-11.3074010767585
 30
0.0
 40
0.0625
  0
CIRCLE
  5
F43A9
102
{ACAD_XDICTIONARY
360
100001B7
102
}
330
1F
100
AcDbEntity
  8
VISIBLE
100
AcDbCircle
 10
-1.249999999999997
 20
-16.05740107675851
 30
0.0
 40
0.09375
  0
LINE
  5
F43AA
102
{ACAD_XDICTIONARY
360
100001B9
102
}
330
1F
100
AcDbEntity
  8
VISIBLE
100
AcDbLine
 10
1.500000000000001
 20
-10.8074010767585
 30
0.0
 11
1.500000000000001
 21
-14.5574010767585
 31
0.0
  0
ENDSEC
  0
SECTION
  2
OBJECTS
  0
DICTIONARY
  5
C
330
0
100
AcDbDictionary
  3
ACAD_GROUP
350
D
  3
ACAD_LAYOUT
350
1A
  3
ACAD_MATERIAL
350
43
  3
ACAD_MLEADERSTYLE
350
6B
  3
ACAD_MLINESTYLE
350
17
  3
ACAD_PLOTSETTINGS
350
19
  3
ACAD_SCALELIST
350
47
  3
ACAD_VISUALSTYLE
350
2A
  3
ACDBHEADERROUNDTRIPXREC
350
100001BD
  3
ACDBVARIABLEDICTIONARY
350
100001DE
  3
DWGPROPS
350
100001E5
  3
ONSHAPE_DATA
350
10000001
  0
DICTIONARY
  5
100001E6
330
8
100
AcDbDictionary
280
     1
  3
ACAD_XREC_ROUNDTRIP
360
100001E7
  0
DICTIONARY
  5
100001BB
330
1F
100
AcDbDictionary
280
     1
  3
ACAD_SORTENTS
360
100001BC
  0
DICTIONARY
  5
1000004B
330
F42F3
100
AcDbDictionary
280
     1
  3
BTDETID
360
1000004C
  0
DICTIONARY
  5
1000004D
330
F42F4
100
AcDbDictionary
280
     1
  3
BTDETID
360
1000004E
  0
DICTIONARY
  5
1000004F
330
F42F5
100
AcDbDictionary
280
     1
  3
BTDETID
360
10000050
  0
DICTIONARY
  5
10000051
330
F42F6
100
AcDbDictionary
280
     1
  3
BTDETID
360
10000052
  0
DICTIONARY
  5
10000053
330
F42F7
100
AcDbDictionary
280
     1
  3
BTDETID
360
10000054
  0
DICTIONARY
  5
10000055
330
F42F8
100
AcDbDictionary
280
     1
  3
BTDETID
360
10000056
  0
DICTIONARY
  5
10000057
330
F42F9
100
AcDbDictionary
280
     1
  3
BTDETID
360
10000058
  0
DICTIONARY
  5
10000059
330
F42FA
100
AcDbDictionary
280
     1
  3
BTDETID
360
1000005A
  0
DICTIONARY
  5
1000005B
330
F42FB
100
AcDbDictionary
280
     1
  3
BTDETID
360
1000005C
  0
DICTIONARY
  5
1000005D
330
F42FC
100
AcDbDictionary
280
     1
  3
BTDETID
360
1000005E
  0
DICTIONARY
  5
1000005F
330
F42FD
100
AcDbDictionary
280
     1
  3
BTDETID
360
10000060
  0
DICTIONARY
  5
10000061
330
F42FE
100
AcDbDictionary
280
     1
  3
BTDETID
360
10000062
  0
DICTIONARY
  5
10000063
330
F42FF
100
AcDbDictionary
280
     1
  3
BTDETID
360
10000064
  0
DICTIONARY
  5
10000065
330
F4300
100
AcDbDictionary
280
     1
  3
BTDETID
360
10000066
  0
DICTIONARY
  5
10000067
330
F4301
100
AcDbDictionary
280
     1
  3
BTDETID
360
10000068
  0
DICTIONARY
  5
10000069
330
F4302
100
AcDbDictionary
280
     1
  3
BTDETID
360
1000006A
  0
DICTIONARY
  5
1000006B
330
F4303
100
AcDbDictionary
280
     1
  3
BTDETID
360
1000006C
  0
DICTIONARY
  5
1000006D
330
F4304
100
AcDbDictionary
280
     1
  3
BTDETID
360
1000006E
  0
DICTIONARY
  5
1000006F
330
F4305
100
AcDbDictionary
280
     1
  3
BTDETID
360
10000070
  0
DICTIONARY
  5
10000071
330
F4306
100
AcDbDictionary
280
     1
  3
BTDETID
360
10000072
  0
DICTIONARY
  5
10000073
330
F4307
100
AcDbDictionary
280
     1
  3
BTDETID
360
10000074
  0
DICTIONARY
  5
10000075
330
F4308
100
AcDbDictionary
280
     1
  3
BTDETID
360
10000076
  0
DICTIONARY
  5
10000077
330
F4309
100
AcDbDictionary
280
     1
  3
BTDETID
360
10000078
  0
DICTIONARY
  5
10000079
330
F430A
100
AcDbDictionary
280
     1
  3
BTDETID
360
1000007A
  0
DICTIONARY
  5
1000007B
330
F430B
100
AcDbDictionary
280
     1
  3
BTDETID
360
1000007C
  0
DICTIONARY
  5
1000007D
330
F430C
100
AcDbDictionary
280
     1
  3
BTDETID
360
1000007E
  0
DICTIONARY
  5
1000007F
330
F430D
100
AcDbDictionary
280
     1
  3
BTDETID
360
10000080
  0
DICTIONARY
  5
10000081
330
F430E
100
AcDbDictionary
280
     1
  3
BTDETID
360
10000082
  0
DICTIONARY
  5
10000083
330
F430F
100
AcDbDictionary
280
     1
  3
BTDETID
360
10000084
  0
DICTIONARY
  5
10000085
330
F4310
100
AcDbDictionary
280
     1
  3
BTDETID
360
10000086
  0
DICTIONARY
  5
10000087
330
F4311
100
AcDbDictionary
280
     1
  3
BTDETID
360
10000088
  0
DICTIONARY
  5
10000089
330
F4312
100
AcDbDictionary
280
     1
  3
BTDETID
360
1000008A
  0
DICTIONARY
  5
1000008B
330
F4313
100
AcDbDictionary
280
     1
  3
BTDETID
360
1000008C
  0
DICTIONARY
  5
1000008D
330
F4314
100
AcDbDictionary
280
     1
  3
BTDETID
360
1000008E
  0
DICTIONARY
  5
1000008F
330
F4315
100
AcDbDictionary
280
     1
  3
BTDETID
360
10000090
  0
DICTIONARY
  5
10000091
330
F4316
100
AcDbDictionary
280
     1
  3
BTDETID
360
10000092
  0
DICTIONARY
  5
10000093
330
F4317
100
AcDbDictionary
280
     1
  3
BTDETID
360
10000094
  0
DICTIONARY
  5
10000095
330
F4318
100
AcDbDictionary
280
     1
  3
BTDETID
360
10000096
  0
DICTIONARY
  5
10000097
330
F4319
100
AcDbDictionary
280
     1
  3
BTDETID
360
10000098
  0
DICTIONARY
  5
10000099
330
F431A
100
AcDbDictionary
280
     1
  3
BTDETID
360
1000009A
  0
DICTIONARY
  5
1000009B
330
F431B
100
AcDbDictionary
280
     1
  3
BTDETID
360
1000009C
  0
DICTIONARY
  5
1000009D
330
F431C
100
AcDbDictionary
280
     1
  3
BTDETID
360
1000009E
  0
DICTIONARY
  5
1000009F
330
F431D
100
AcDbDictionary
280
     1
  3
BTDETID
360
100000A0
  0
DICTIONARY
  5
100000A1
330
F431E
100
AcDbDictionary
280
     1
  3
BTDETID
360
100000A2
  0
DICTIONARY
  5
100000A3
330
F431F
100
AcDbDictionary
280
     1
  3
BTDETID
360
100000A4
  0
DICTIONARY
  5
100000A5
330
F4320
100
AcDbDictionary
280
     1
  3
BTDETID
360
100000A6
  0
DICTIONARY
  5
100000A7
330
F4321
100
AcDbDictionary
280
     1
  3
BTDETID
360
100000A8
  0
DICTIONARY
  5
100000A9
330
F4322
100
AcDbDictionary
280
     1
  3
BTDETID
360
100000AA
  0
DICTIONARY
  5
100000AB
330
F4323
100
AcDbDictionary
280
     1
  3
BTDETID
360
100000AC
  0
DICTIONARY
  5
100000AD
330
F4324
100
AcDbDictionary
280
     1
  3
BTDETID
360
100000AE
  0
DICTIONARY
  5
100000AF
330
F4325
100
AcDbDictionary
280
     1
  3
BTDETID
360
100000B0
  0
DICTIONARY
  5
100000B1
330
F4326
100
AcDbDictionary
280
     1
  3
BTDETID
360
100000B2
  0
DICTIONARY
  5
100000B3
330
F4327
100
AcDbDictionary
280
     1
  3
BTDETID
360
100000B4
  0
DICTIONARY
  5
100000B5
330
F4328
100
AcDbDictionary
280
     1
  3
BTDETID
360
100000B6
  0
DICTIONARY
  5
100000B7
330
F4329
100
AcDbDictionary
280
     1
  3
BTDETID
360
100000B8
  0
DICTIONARY
  5
100000B9
330
F432A
100
AcDbDictionary
280
     1
  3
BTDETID
360
100000BA
  0
DICTIONARY
  5
100000BB
330
F432B
100
AcDbDictionary
280
     1
  3
BTDETID
360
100000BC
  0
DICTIONARY
  5
100000BD
330
F432C
100
AcDbDictionary
280
     1
  3
BTDETID
360
100000BE
  0
DICTIONARY
  5
100000BF
330
F432D
100
AcDbDictionary
280
     1
  3
BTDETID
360
100000C0
  0
DICTIONARY
  5
100000C1
330
F432E
100
AcDbDictionary
280
     1
  3
BTDETID
360
100000C2
  0
DICTIONARY
  5
100000C3
330
F432F
100
AcDbDictionary
280
     1
  3
BTDETID
360
100000C4
  0
DICTIONARY
  5
100000C5
330
F4330
100
AcDbDictionary
280
     1
  3
BTDETID
360
100000C6
  0
DICTIONARY
  5
100000C7
330
F4331
100
AcDbDictionary
280
     1
  3
BTDETID
360
100000C8
  0
DICTIONARY
  5
100000C9
330
F4332
100
AcDbDictionary
280
     1
  3
BTDETID
360
100000CA
  0
DICTIONARY
  5
100000CB
330
F4333
100
AcDbDictionary
280
     1
  3
BTDETID
360
100000CC
  0
DICTIONARY
  5
100000CD
330
F4334
100
AcDbDictionary
280
     1
  3
BTDETID
360
100000CE
  0
DICTIONARY
  5
100000CF
330
F4335
100
AcDbDictionary
280
     1
  3
BTDETID
360
100000D0
  0
DICTIONARY
  5
100000D1
330
F4336
100
AcDbDictionary
280
     1
  3
BTDETID
360
100000D2
  0
DICTIONARY
  5
100000D3
330
F4337
100
AcDbDictionary
280
     1
  3
BTDETID
360
100000D4
  0
DICTIONARY
  5
100000D5
330
F4338
100
AcDbDictionary
280
     1
  3
BTDETID
360
100000D6
  0
DICTIONARY
  5
100000D7
330
F4339
100
AcDbDictionary
280
     1
  3
BTDETID
360
100000D8
  0
DICTIONARY
  5
100000D9
330
F433A
100
AcDbDictionary
280
     1
  3
BTDETID
360
100000DA
  0
DICTIONARY
  5
100000DB
330
F433B
100
AcDbDictionary
280
     1
  3
BTDETID
360
100000DC
  0
DICTIONARY
  5
100000DD
330
F433C
100
AcDbDictionary
280
     1
  3
BTDETID
360
100000DE
  0
DICTIONARY
  5
100000DF
330
F433D
100
AcDbDictionary
280
     1
  3
BTDETID
360
100000E0
  0
DICTIONARY
  5
100000E1
330
F433E
100
AcDbDictionary
280
     1
  3
BTDETID
360
100000E2
  0
DICTIONARY
  5
100000E3
330
F433F
100
AcDbDictionary
280
     1
  3
BTDETID
360
100000E4
  0
DICTIONARY
  5
100000E5
330
F4340
100
AcDbDictionary
280
     1
  3
BTDETID
360
100000E6
  0
DICTIONARY
  5
100000E7
330
F4341
100
AcDbDictionary
280
     1
  3
BTDETID
360
100000E8
  0
DICTIONARY
  5
100000E9
330
F4342
100
AcDbDictionary
280
     1
  3
BTDETID
360
100000EA
  0
DICTIONARY
  5
100000EB
330
F4343
100
AcDbDictionary
280
     1
  3
BTDETID
360
100000EC
  0
DICTIONARY
  5
100000ED
330
F4344
100
AcDbDictionary
280
     1
  3
BTDETID
360
100000EE
  0
DICTIONARY
  5
100000EF
330
F4345
100
AcDbDictionary
280
     1
  3
BTDETID
360
100000F0
  0
DICTIONARY
  5
100000F1
330
F4346
100
AcDbDictionary
280
     1
  3
BTDETID
360
100000F2
  0
DICTIONARY
  5
100000F3
330
F4347
100
AcDbDictionary
280
     1
  3
BTDETID
360
100000F4
  0
DICTIONARY
  5
100000F5
330
F4348
100
AcDbDictionary
280
     1
  3
BTDETID
360
100000F6
  0
DICTIONARY
  5
100000F7
330
F4349
100
AcDbDictionary
280
     1
  3
BTDETID
360
100000F8
  0
DICTIONARY
  5
100000F9
330
F434A
100
AcDbDictionary
280
     1
  3
BTDETID
360
100000FA
  0
DICTIONARY
  5
100000FB
330
F434B
100
AcDbDictionary
280
     1
  3
BTDETID
360
100000FC
  0
DICTIONARY
  5
100000FD
330
F434C
100
AcDbDictionary
280
     1
  3
BTDETID
360
100000FE
  0
DICTIONARY
  5
100000FF
330
F434D
100
AcDbDictionary
280
     1
  3
BTDETID
360
10000100
  0
DICTIONARY
  5
10000101
330
F434E
100
AcDbDictionary
280
     1
  3
BTDETID
360
10000102
  0
DICTIONARY
  5
10000103
330
F434F
100
AcDbDictionary
280
     1
  3
BTDETID
360
10000104
  0
DICTIONARY
  5
10000105
330
F4350
100
AcDbDictionary
280
     1
  3
BTDETID
360
10000106
  0
DICTIONARY
  5
10000107
330
F4351
100
AcDbDictionary
280
     1
  3
BTDETID
360
10000108
  0
DICTIONARY
  5
10000109
330
F4352
100
AcDbDictionary
280
     1
  3
BTDETID
360
1000010A
  0
DICTIONARY
  5
1000010B
330
F4353
100
AcDbDictionary
280
     1
  3
BTDETID
360
1000010C
  0
DICTIONARY
  5
1000010D
330
F4354
100
AcDbDictionary
280
     1
  3
BTDETID
360
1000010E
  0
DICTIONARY
  5
1000010F
330
F4355
100
AcDbDictionary
280
     1
  3
BTDETID
360
10000110
  0
DICTIONARY
  5
10000111
330
F4356
100
AcDbDictionary
280
     1
  3
BTDETID
360
10000112
  0
DICTIONARY
  5
10000113
330
F4357
100
AcDbDictionary
280
     1
  3
BTDETID
360
10000114
  0
DICTIONARY
  5
10000115
330
F4358
100
AcDbDictionary
280
     1
  3
BTDETID
360
10000116
  0
DICTIONARY
  5
10000117
330
F4359
100
AcDbDictionary
280
     1
  3
BTDETID
360
10000118
  0
DICTIONARY
  5
10000119
330
F435A
100
AcDbDictionary
280
     1
  3
BTDETID
360
1000011A
  0
DICTIONARY
  5
1000011B
330
F435B
100
AcDbDictionary
280
     1
  3
BTDETID
360
1000011C
  0
DICTIONARY
  5
1000011D
330
F435C
100
AcDbDictionary
280
     1
  3
BTDETID
360
1000011E
  0
DICTIONARY
  5
1000011F
330
F435D
100
AcDbDictionary
280
     1
  3
BTDETID
360
10000120
  0
DICTIONARY
  5
10000121
330
F435E
100
AcDbDictionary
280
     1
  3
BTDETID
360
10000122
  0
DICTIONARY
  5
10000123
330
F435F
100
AcDbDictionary
280
     1
  3
BTDETID
360
10000124
  0
DICTIONARY
  5
10000125
330
F4360
100
AcDbDictionary
280
     1
  3
BTDETID
360
10000126
  0
DICTIONARY
  5
10000127
330
F4361
100
AcDbDictionary
280
     1
  3
BTDETID
360
10000128
  0
DICTIONARY
  5
10000129
330
F4362
100
AcDbDictionary
280
     1
  3
BTDETID
360
1000012A
  0
DICTIONARY
  5
1000012B
330
F4363
100
AcDbDictionary
280
     1
  3
BTDETID
360
1000012C
  0
DICTIONARY
  5
1000012D
330
F4364
100
AcDbDictionary
280
     1
  3
BTDETID
360
1000012E
  0
DICTIONARY
  5
1000012F
330
F4365
100
AcDbDictionary
280
     1
  3
BTDETID
360
10000130
  0
DICTIONARY
  5
10000131
330
F4366
100
AcDbDictionary
280
     1
  3
BTDETID
360
10000132
  0
DICTIONARY
  5
10000133
330
F4367
100
AcDbDictionary
280
     1
  3
BTDETID
360
10000134
  0
DICTIONARY
  5
10000135
330
F4368
100
AcDbDictionary
280
     1
  3
BTDETID
360
10000136
  0
DICTIONARY
  5
10000137
330
F4369
100
AcDbDictionary
280
     1
  3
BTDETID
360
10000138
  0
DICTIONARY
  5
10000139
330
F436A
100
AcDbDictionary
280
     1
  3
BTDETID
360
1000013A
  0
DICTIONARY
  5
1000013B
330
F436B
100
AcDbDictionary
280
     1
  3
BTDETID
360
1000013C
  0
DICTIONARY
  5
1000013D
330
F436C
100
AcDbDictionary
280
     1
  3
BTDETID
360
1000013E
  0
DICTIONARY
  5
1000013F
330
F436D
100
AcDbDictionary
280
     1
  3
BTDETID
360
10000140
  0
DICTIONARY
  5
10000141
330
F436E
100
AcDbDictionary
280
     1
  3
BTDETID
360
10000142
  0
DICTIONARY
  5
10000143
330
F436F
100
AcDbDictionary
280
     1
  3
BTDETID
360
10000144
  0
DICTIONARY
  5
10000145
330
F4370
100
AcDbDictionary
280
     1
  3
BTDETID
360
10000146
  0
DICTIONARY
  5
10000147
330
F4371
100
AcDbDictionary
280
     1
  3
BTDETID
360
10000148
  0
DICTIONARY
  5
10000149
330
F4372
100
AcDbDictionary
280
     1
  3
BTDETID
360
1000014A
  0
DICTIONARY
  5
1000014B
330
F4373
100
AcDbDictionary
280
     1
  3
BTDETID
360
1000014C
  0
DICTIONARY
  5
1000014D
330
F4374
100
AcDbDictionary
280
     1
  3
BTDETID
360
1000014E
  0
DICTIONARY
  5
1000014F
330
F4375
100
AcDbDictionary
280
     1
  3
BTDETID
360
10000150
  0
DICTIONARY
  5
10000151
330
F4376
100
AcDbDictionary
280
     1
  3
BTDETID
360
10000152
  0
DICTIONARY
  5
10000153
330
F4377
100
AcDbDictionary
280
     1
  3
BTDETID
360
10000154
  0
DICTIONARY
  5
10000155
330
F4378
100
AcDbDictionary
280
     1
  3
BTDETID
360
10000156
  0
DICTIONARY
  5
10000157
330
F4379
100
AcDbDictionary
280
     1
  3
BTDETID
360
10000158
  0
DICTIONARY
  5
10000159
330
F437A
100
AcDbDictionary
280
     1
  3
BTDETID
360
1000015A
  0
DICTIONARY
  5
1000015B
330
F437B
100
AcDbDictionary
280
     1
  3
BTDETID
360
1000015C
  0
DICTIONARY
  5
1000015D
330
F437C
100
AcDbDictionary
280
     1
  3
BTDETID
360
1000015E
  0
DICTIONARY
  5
1000015F
330
F437D
100
AcDbDictionary
280
     1
  3
BTDETID
360
10000160
  0
DICTIONARY
  5
10000161
330
F437E
100
AcDbDictionary
280
     1
  3
BTDETID
360
10000162
  0
DICTIONARY
  5
10000163
330
F437F
100
AcDbDictionary
280
     1
  3
BTDETID
360
10000164
  0
DICTIONARY
  5
10000165
330
F4380
100
AcDbDictionary
280
     1
  3
BTDETID
360
10000166
  0
DICTIONARY
  5
10000167
330
F4381
100
AcDbDictionary
280
     1
  3
BTDETID
360
10000168
  0
DICTIONARY
  5
10000169
330
F4382
100
AcDbDictionary
280
     1
  3
BTDETID
360
1000016A
  0
DICTIONARY
  5
1000016B
330
F4383
100
AcDbDictionary
280
     1
  3
BTDETID
360
1000016C
  0
DICTIONARY
  5
1000016D
330
F4384
100
AcDbDictionary
280
     1
  3
BTDETID
360
1000016E
  0
DICTIONARY
  5
1000016F
330
F4385
100
AcDbDictionary
280
     1
  3
BTDETID
360
10000170
  0
DICTIONARY
  5
10000171
330
F4386
100
AcDbDictionary
280
     1
  3
BTDETID
360
10000172
  0
DICTIONARY
  5
10000173
330
F4387
100
AcDbDictionary
280
     1
  3
BTDETID
360
10000174
  0
DICTIONARY
  5
10000175
330
F4388
100
AcDbDictionary
280
     1
  3
BTDETID
360
10000176
  0
DICTIONARY
  5
10000177
330
F4389
100
AcDbDictionary
280
     1
  3
BTDETID
360
10000178
  0
DICTIONARY
  5
10000179
330
F438A
100
AcDbDictionary
280
     1
  3
BTDETID
360
1000017A
  0
DICTIONARY
  5
1000017B
330
F438B
100
AcDbDictionary
280
     1
  3
BTDETID
360
1000017C
  0
DICTIONARY
  5
1000017D
330
F438C
100
AcDbDictionary
280
     1
  3
BTDETID
360
1000017E
  0
DICTIONARY
  5
1000017F
330
F438D
100
AcDbDictionary
280
     1
  3
BTDETID
360
10000180
  0
DICTIONARY
  5
10000181
330
F438E
100
AcDbDictionary
280
     1
  3
BTDETID
360
10000182
  0
DICTIONARY
  5
10000183
330
F438F
100
AcDbDictionary
280
     1
  3
BTDETID
360
10000184
  0
DICTIONARY
  5
10000185
330
F4390
100
AcDbDictionary
280
     1
  3
BTDETID
360
10000186
  0
DICTIONARY
  5
10000187
330
F4391
100
AcDbDictionary
280
     1
  3
BTDETID
360
10000188
  0
DICTIONARY
  5
10000189
330
F4392
100
AcDbDictionary
280
     1
  3
BTDETID
360
1000018A
  0
DICTIONARY
  5
1000018B
330
F4393
100
AcDbDictionary
280
     1
  3
BTDETID
360
1000018C
  0
DICTIONARY
  5
1000018D
330
F4394
100
AcDbDictionary
280
     1
  3
BTDETID
360
1000018E
  0
DICTIONARY
  5
1000018F
330
F4395
100
AcDbDictionary
280
     1
  3
BTDETID
360
10000190
  0
DICTIONARY
  5
10000191
330
F4396
100
AcDbDictionary
280
     1
  3
BTDETID
360
10000192
  0
DICTIONARY
  5
10000193
330
F4397
100
AcDbDictionary
280
     1
  3
BTDETID
360
10000194
  0
DICTIONARY
  5
10000195
330
F4398
100
AcDbDictionary
280
     1
  3
BTDETID
360
10000196
  0
DICTIONARY
  5
10000197
330
F4399
100
AcDbDictionary
280
     1
  3
BTDETID
360
10000198
  0
DICTIONARY
  5
10000199
330
F439A
100
AcDbDictionary
280
     1
  3
BTDETID
360
1000019A
  0
DICTIONARY
  5
1000019B
330
F439B
100
AcDbDictionary
280
     1
  3
BTDETID
360
1000019C
  0
DICTIONARY
  5
1000019D
330
F439C
100
AcDbDictionary
280
     1
  3
BTDETID
360
1000019E
  0
DICTIONARY
  5
1000019F
330
F439D
100
AcDbDictionary
280
     1
  3
BTDETID
360
100001A0
  0
DICTIONARY
  5
100001A1
330
F439E
100
AcDbDictionary
280
     1
  3
BTDETID
360
100001A2
  0
DICTIONARY
  5
100001A3
330
F439F
100
AcDbDictionary
280
     1
  3
BTDETID
360
100001A4
  0
DICTIONARY
  5
100001A5
330
F43A0
100
AcDbDictionary
280
     1
  3
BTDETID
360
100001A6
  0
DICTIONARY
  5
100001A7
330
F43A1
100
AcDbDictionary
280
     1
  3
BTDETID
360
100001A8
  0
DICTIONARY
  5
100001A9
330
F43A2
100
AcDbDictionary
280
     1
  3
BTDETID
360
100001AA
  0
DICTIONARY
  5
100001AB
330
F43A3
100
AcDbDictionary
280
     1
  3
BTDETID
360
100001AC
  0
DICTIONARY
  5
100001AD
330
F43A4
100
AcDbDictionary
280
     1
  3
BTDETID
360
100001AE
  0
DICTIONARY
  5
100001AF
330
F43A5
100
AcDbDictionary
280
     1
  3
BTDETID
360
100001B0
  0
DICTIONARY
  5
100001B1
330
F43A6
100
AcDbDictionary
280
     1
  3
BTDETID
360
100001B2
  0
DICTIONARY
  5
100001B3
330
F43A7
100
AcDbDictionary
280
     1
  3
BTDETID
360
100001B4
  0
DICTIONARY
  5
100001B5
330
F43A8
100
AcDbDictionary
280
     1
  3
BTDETID
360
100001B6
  0
DICTIONARY
  5
100001B7
330
F43A9
100
AcDbDictionary
280
     1
  3
BTDETID
360
100001B8
  0
DICTIONARY
  5
100001B9
330
F43AA
100
AcDbDictionary
280
     1
  3
BTDETID
360
100001BA
  0
DICTIONARY
  5
D
102
{ACAD_REACTORS
330
C
102
}
330
C
100
AcDbDictionary
  0
DICTIONARY
  5
1A
102
{ACAD_REACTORS
330
C
102
}
330
C
100
AcDbDictionary
  0
DICTIONARY
  5
43
102
{ACAD_REACTORS
330
C
102
}
330
C
100
AcDbDictionary
  3
BYBLOCK
350
45
  3
BYLAYER
350
44
  3
GLOBAL
350
46
  0
DICTIONARY
  5
6B
102
{ACAD_REACTORS
330
C
102
}
330
C
100
AcDbDictionary
  3
STANDARD
350
6C
  0
DICTIONARY
  5
17
102
{ACAD_REACTORS
330
C
102
}
330
C
100
AcDbDictionary
  3
STANDARD
350
18
  0
DICTIONARY
  5
19
102
{ACAD_REACTORS
330
C
102
}
330
C
100
AcDbDictionary
  0
DICTIONARY
  5
47
102
{ACAD_REACTORS
330
C
102
}
330
C
100
AcDbDictionary
  3
SCALE100_1
350
10000023
  3
SCALE10_1
350
1000001D
  3
SCALE12_1
350
1000001E
  3
SCALE16_1
350
1000001F
  3
SCALE1_1
350
10000006
  3
SCALE1_10
350
1000000D
  3
SCALE1_100
350
10000016
  3
SCALE1_12
350
1000000E
  3
SCALE1_16
350
1000000F
  3
SCALE1_2
350
10000007
  3
SCALE1_20
350
10000010
  3
SCALE1_25
350
10000011
  3
SCALE1_3
350
10000008
  3
SCALE1_32
350
10000012
  3
SCALE1_4
350
10000009
  3
SCALE1_40
350
10000013
  3
SCALE1_5
350
1000000A
  3
SCALE1_50
350
10000014
  3
SCALE1_6
350
1000000B
  3
SCALE1_8
350
1000000C
  3
SCALE1_80
350
10000015
  3
SCALE20_1
350
10000020
  3
SCALE2_1
350
10000017
  3
SCALE32_1
350
10000021
  3
SCALE3_1
350
10000018
  3
SCALE4_1
350
10000019
  3
SCALE50_1
350
10000022
  3
SCALE5_1
350
1000001A
  3
SCALE6_1
350
1000001B
  3
SCALE8_1
350
1000001C
  0
DICTIONARY
  5
2A
102
{ACAD_REACTORS
330
C
102
}
330
C
100
AcDbDictionary
  3
2DWIREFRAME
350
2F
  3
BASIC
350
32
  3
BRIGHTEN
350
36
  3
COLORCHANGE
350
3A
  3
CONCEPTUAL
350
34
  3
DIM
350
35
  3
EDGECOLOROFF
350
3D
  3
FACEPATTERN
350
39
  3
FLAT
350
2B
  3
FLATWITHEDGES
350
2C
  3
GOURAUD
350
2D
  3
GOURAUDWITHEDGES
350
2E
  3
HIDDEN
350
31
  3
JITTEROFF
350
3B
  3
LINEPATTERN
350
38
  3
OVERHANGOFF
350
3C
  3
REALISTIC
350
33
  3
SHADED
350
42
  3
SHADED_WITH_EDGES
350
41
  3
SHADES_OF_GRAY
350
3E
  3
SKETCHY
350
3F
  3
THICKEN
350
37
  3
WIREFRAME
350
30
  3
X-RAY
350
40
  0
DICTIONARY
  5
100001BD
102
{ACAD_REACTORS
330
C
102
}
330
C
100
AcDbDictionary
  3
CEPSNID
350
100001C7
  3
CEPSNTYPE
350
100001C6
  3
DIMSTYLEDATA
350
100001DD
  3
FINGERPRINTGUID
350
100001C8
  3
HYPERLINKBASE
350
100001C0
  3
INSUNITS
350
100001C5
  3
LAYOUTDICT
350
100001C2
  3
LWETCUNION
350
100001C4
  3
PLOTSETDICT
350
100001C3
  3
PSVPSCALE
350
100001CA
  3
PUCSBASE
350
100001CD
  3
PUCSORGBACK
350
100001D3
  3
PUCSORGBOTTOM
350
100001CF
  3
PUCSORGFRONT
350
100001D2
  3
PUCSORGLEFT
350
100001D0
  3
PUCSORGRIGHT
350
100001D1
  3
PUCSORGTOP
350
100001CE
  3
PUCSORTHOREF
350
100001CB
  3
PUCSORTHOVIEW
350
100001CC
  3
STYLESHEET
350
100001C1
  3
TSTACKALIGN
350
100001BE
  3
TSTACKSIZE
350
100001BF
  3
UCSBASE
350
100001D6
  3
UCSORGBACK
350
100001DC
  3
UCSORGBOTTOM
350
100001D8
  3
UCSORGFRONT
350
100001DB
  3
UCSORGLEFT
350
100001D9
  3
UCSORGRIGHT
350
100001DA
  3
UCSORGTOP
350
100001D7
  3
UCSORTHOREF
350
100001D4
  3
UCSORTHOVIEW
350
100001D5
  3
VERSIONGUID
350
100001C9
  0
DICTIONARY
  5
100001DE
102
{ACAD_REACTORS
330
C
102
}
330
C
100
AcDbDictionary
  3
CANNOSCALE
350
100001E8
  3
CMLEADERSTYLE
350
100001E0
  3
CTABLESTYLE
350
100001DF
  3
DIMASSOC
350
100001E3
  3
HIDETEXT
350
100001E4
  3
MSLTSCALE
350
100001E9
  0
XRECORD
  5
100001E5
102
{ACAD_REACTORS
330
C
102
}
330
C
100
AcDbXrecord
  1
DWGPROPS COOKIE
  2

  3

  4

  6
File was created by BTDwgCreate
  7

  8

  9

300
=
301
=
302
=
303
=
304
=
305
=
306
=
307
=
308
=
309
=
 40
0.0
 41
2458204.811153669
 42
2458204.811153738
  1

 90
        0
  0
DICTIONARY
  5
10000001
102
{ACAD_REACTORS
330
C
102
}
330
C
100
AcDbDictionary
280
     1
  3
DIM_UNITS
360
10000003
  3
DWGGEN_VERSION
360
10000002
  3
FIRST_ANGLE
360
10000005
  0
XRECORD
  5
100001E7
102
{ACAD_REACTORS
330
100001E6
102
}
330
100001E6
100
AcDbXrecord
102
VTR_0.000_0.000_1.000_1.000_VISUALSTYLE
340
2F
102
VTR_0.000_0.000_1.000_1.000_GRIDDISPLAY
 70
     3
102
VTR_0.000_0.000_1.000_1.000_GRIDMAJOR
 70
     5
102
VTR_0.000_0.000_1.000_1.000_DEFAULTLIGHTING
280
     1
102
VTR_0.000_0.000_1.000_1.000_DEFAULTLIGHTINGTYPE
 70
     1
102
VTR_0.000_0.000_1.000_1.000_BRIGHTNESS
141
0.0
102
VTR_0.000_0.000_1.000_1.000_CONTRAST
142
0.0
  0
SORTENTSTABLE
  5
100001BC
102
{ACAD_REACTORS
330
100001BB
102
}
330
100001BB
100
AcDbSortentsTable
330
1F
  0
XRECORD
  5
1000004C
102
{ACAD_REACTORS
330
1000004B
102
}
330
1000004B
100
AcDbXrecord
1000
KF1B
  0
XRECORD
  5
1000004E
102
{ACAD_REACTORS
330
1000004D
102
}
330
1000004D
100
AcDbXrecord
1000
KFxB
  0
XRECORD
  5
10000050
102
{ACAD_REACTORS
330
1000004F
102
}
330
1000004F
100
AcDbXrecord
1000
KFtB
  0
XRECORD
  5
10000052
102
{ACAD_REACTORS
330
10000051
102
}
330
10000051
100
AcDbXrecord
1000
KFpB
  0
XRECORD
  5
10000054
102
{ACAD_REACTORS
330
10000053
102
}
330
10000053
100
AcDbXrecord
1000
KFlB
  0
XRECORD
  5
10000056
102
{ACAD_REACTORS
330
10000055
102
}
330
10000055
100
AcDbXrecord
1000
JFR
  0
XRECORD
  5
10000058
102
{ACAD_REACTORS
330
10000057
102
}
330
10000057
100
AcDbXrecord
1000
KFFC
  0
XRECORD
  5
1000005A
102
{ACAD_REACTORS
330
10000059
102
}
330
10000059
100
AcDbXrecord
1000
JFN
  0
XRECORD
  5
1000005C
102
{ACAD_REACTORS
330
1000005B
102
}
330
1000005B
100
AcDbXrecord
1000
JFJ
  0
XRECORD
  5
1000005E
102
{ACAD_REACTORS
330
1000005D
102
}
330
1000005D
100
AcDbXrecord
1000
KF9B
  0
XRECORD
  5
10000060
102
{ACAD_REACTORS
330
1000005F
102
}
330
1000005F
100
AcDbXrecord
1000
JFF
  0
XRECORD
  5
10000062
102
{ACAD_REACTORS
330
10000061
102
}
330
10000061
100
AcDbXrecord
1000
KF5B
  0
XRECORD
  5
10000064
102
{ACAD_REACTORS
330
10000063
102
}
330
10000063
100
AcDbXrecord
1000
KFpK
  0
XRECORD
  5
10000066
102
{ACAD_REACTORS
330
10000065
102
}
330
10000065
100
AcDbXrecord
1000
KFtJ
  0
XRECORD
  5
10000068
102
{ACAD_REACTORS
330
10000067
102
}
330
10000067
100
AcDbXrecord
1000
KFpJ
  0
XRECORD
  5
1000006A
102
{ACAD_REACTORS
330
10000069
102
}
330
10000069
100
AcDbXrecord
1000
KFlE
  0
XRECORD
  5
1000006C
102
{ACAD_REACTORS
330
1000006B
102
}
330
1000006B
100
AcDbXrecord
1000
KFlI
  0
XRECORD
  5
1000006E
102
{ACAD_REACTORS
330
1000006D
102
}
330
1000006D
100
AcDbXrecord
1000
KFZE
  0
XRECORD
  5
10000070
102
{ACAD_REACTORS
330
1000006F
102
}
330
1000006F
100
AcDbXrecord
1000
KFVE
  0
XRECORD
  5
10000072
102
{ACAD_REACTORS
330
10000071
102
}
330
10000071
100
AcDbXrecord
1000
KFRE
  0
XRECORD
  5
10000074
102
{ACAD_REACTORS
330
10000073
102
}
330
10000073
100
AcDbXrecord
1000
KFhC
  0
XRECORD
  5
10000076
102
{ACAD_REACTORS
330
10000075
102
}
330
10000075
100
AcDbXrecord
1000
KFJE
  0
XRECORD
  5
10000078
102
{ACAD_REACTORS
330
10000077
102
}
330
10000077
100
AcDbXrecord
1000
KFdC
  0
XRECORD
  5
1000007A
102
{ACAD_REACTORS
330
10000079
102
}
330
10000079
100
AcDbXrecord
1000
KFNE
  0
XRECORD
  5
1000007C
102
{ACAD_REACTORS
330
1000007B
102
}
330
1000007B
100
AcDbXrecord
1000
KFBE
  0
XRECORD
  5
1000007E
102
{ACAD_REACTORS
330
1000007D
102
}
330
1000007D
100
AcDbXrecord
1000
KFhG
  0
XRECORD
  5
10000080
102
{ACAD_REACTORS
330
1000007F
102
}
330
1000007F
100
AcDbXrecord
1000
KFFE
  0
XRECORD
  5
10000082
102
{ACAD_REACTORS
330
10000081
102
}
330
10000081
100
AcDbXrecord
1000
KFNB
  0
XRECORD
  5
10000084
102
{ACAD_REACTORS
330
10000083
102
}
330
10000083
100
AcDbXrecord
1000
KFhE
  0
XRECORD
  5
10000086
102
{ACAD_REACTORS
330
10000085
102
}
330
10000085
100
AcDbXrecord
1000
KFJB
  0
XRECORD
  5
10000088
102
{ACAD_REACTORS
330
10000087
102
}
330
10000087
100
AcDbXrecord
1000
KF5D
  0
XRECORD
  5
1000008A
102
{ACAD_REACTORS
330
10000089
102
}
330
10000089
100
AcDbXrecord
1000
KF1D
  0
XRECORD
  5
1000008C
102
{ACAD_REACTORS
330
1000008B
102
}
330
1000008B
100
AcDbXrecord
1000
KFRC
  0
XRECORD
  5
1000008E
102
{ACAD_REACTORS
330
1000008D
102
}
330
1000008D
100
AcDbXrecord
1000
KFFF
  0
XRECORD
  5
10000090
102
{ACAD_REACTORS
330
1000008F
102
}
330
1000008F
100
AcDbXrecord
1000
KFBB
  0
XRECORD
  5
10000092
102
{ACAD_REACTORS
330
10000091
102
}
330
10000091
100
AcDbXrecord
1000
KFxD
  0
XRECORD
  5
10000094
102
{ACAD_REACTORS
330
10000093
102
}
330
10000093
100
AcDbXrecord
1000
JF9
  0
XRECORD
  5
10000096
102
{ACAD_REACTORS
330
10000095
102
}
330
10000095
100
AcDbXrecord
1000
KFpD
  0
XRECORD
  5
10000098
102
{ACAD_REACTORS
330
10000097
102
}
330
10000097
100
AcDbXrecord
1000
JF1
  0
XRECORD
  5
1000009A
102
{ACAD_REACTORS
330
10000099
102
}
330
10000099
100
AcDbXrecord
1000
KF5I
  0
XRECORD
  5
1000009C
102
{ACAD_REACTORS
330
1000009B
102
}
330
1000009B
100
AcDbXrecord
1000
KFFB
  0
XRECORD
  5
1000009E
102
{ACAD_REACTORS
330
1000009D
102
}
330
1000009D
100
AcDbXrecord
1000
KFpG
  0
XRECORD
  5
100000A0
102
{ACAD_REACTORS
330
1000009F
102
}
330
1000009F
100
AcDbXrecord
1000
KFlD
  0
XRECORD
  5
100000A2
102
{ACAD_REACTORS
330
100000A1
102
}
330
100000A1
100
AcDbXrecord
1000
KF9I
  0
XRECORD
  5
100000A4
102
{ACAD_REACTORS
330
100000A3
102
}
330
100000A3
100
AcDbXrecord
1000
JFx
  0
XRECORD
  5
100000A6
102
{ACAD_REACTORS
330
100000A5
102
}
330
100000A5
100
AcDbXrecord
1000
JFt
  0
XRECORD
  5
100000A8
102
{ACAD_REACTORS
330
100000A7
102
}
330
100000A7
100
AcDbXrecord
1000
JFp
  0
XRECORD
  5
100000AA
102
{ACAD_REACTORS
330
100000A9
102
}
330
100000A9
100
AcDbXrecord
1000
JFl
  0
XRECORD
  5
100000AC
102
{ACAD_REACTORS
330
100000AB
102
}
330
100000AB
100
AcDbXrecord
1000
KFdE
  0
XRECORD
  5
100000AE
102
{ACAD_REACTORS
330
100000AD
102
}
330
100000AD
100
AcDbXrecord
1000
KFVD
  0
XRECORD
  5
100000B0
102
{ACAD_REACTORS
330
100000AF
102
}
330
100000AF
100
AcDbXrecord
1000
KFlH
  0
XRECORD
  5
100000B2
102
{ACAD_REACTORS
330
100000B1
102
}
330
100000B1
100
AcDbXrecord
1000
KFtL
  0
XRECORD
  5
100000B4
102
{ACAD_REACTORS
330
100000B3
102
}
330
100000B3
100
AcDbXrecord
1000
KFdD
  0
XRECORD
  5
100000B6
102
{ACAD_REACTORS
330
100000B5
102
}
330
100000B5
100
AcDbXrecord
1000
KFJG
  0
XRECORD
  5
100000B8
102
{ACAD_REACTORS
330
100000B7
102
}
330
100000B7
100
AcDbXrecord
1000
KF9L
  0
XRECORD
  5
100000BA
102
{ACAD_REACTORS
330
100000B9
102
}
330
100000B9
100
AcDbXrecord
1000
KFVH
  0
XRECORD
  5
100000BC
102
{ACAD_REACTORS
330
100000BB
102
}
330
100000BB
100
AcDbXrecord
1000
KFRD
  0
XRECORD
  5
100000BE
102
{ACAD_REACTORS
330
100000BD
102
}
330
100000BD
100
AcDbXrecord
1000
KFpL
  0
XRECORD
  5
100000C0
102
{ACAD_REACTORS
330
100000BF
102
}
330
100000BF
100
AcDbXrecord
1000
KFJF
  0
XRECORD
  5
100000C2
102
{ACAD_REACTORS
330
100000C1
102
}
330
100000C1
100
AcDbXrecord
1000
JF5
  0
XRECORD
  5
100000C4
102
{ACAD_REACTORS
330
100000C3
102
}
330
100000C3
100
AcDbXrecord
1000
KFBM
  0
XRECORD
  5
100000C6
102
{ACAD_REACTORS
330
100000C5
102
}
330
100000C5
100
AcDbXrecord
1000
KFFM
  0
XRECORD
  5
100000C8
102
{ACAD_REACTORS
330
100000C7
102
}
330
100000C7
100
AcDbXrecord
1000
KF5E
  0
XRECORD
  5
100000CA
102
{ACAD_REACTORS
330
100000C9
102
}
330
100000C9
100
AcDbXrecord
1000
KFJM
  0
XRECORD
  5
100000CC
102
{ACAD_REACTORS
330
100000CB
102
}
330
100000CB
100
AcDbXrecord
1000
KFJC
  0
XRECORD
  5
100000CE
102
{ACAD_REACTORS
330
100000CD
102
}
330
100000CD
100
AcDbXrecord
1000
KFdM
  0
XRECORD
  5
100000D0
102
{ACAD_REACTORS
330
100000CF
102
}
330
100000CF
100
AcDbXrecord
1000
KFZJ
  0
XRECORD
  5
100000D2
102
{ACAD_REACTORS
330
100000D1
102
}
330
100000D1
100
AcDbXrecord
1000
KFpE
  0
XRECORD
  5
100000D4
102
{ACAD_REACTORS
330
100000D3
102
}
330
100000D3
100
AcDbXrecord
1000
KFZC
  0
XRECORD
  5
100000D6
102
{ACAD_REACTORS
330
100000D5
102
}
330
100000D5
100
AcDbXrecord
1000
KFxK
  0
XRECORD
  5
100000D8
102
{ACAD_REACTORS
330
100000D7
102
}
330
100000D7
100
AcDbXrecord
1000
KFRB
  0
XRECORD
  5
100000DA
102
{ACAD_REACTORS
330
100000D9
102
}
330
100000D9
100
AcDbXrecord
1000
KFVM
  0
XRECORD
  5
100000DC
102
{ACAD_REACTORS
330
100000DB
102
}
330
100000DB
100
AcDbXrecord
1000
KFhL
  0
XRECORD
  5
100000DE
102
{ACAD_REACTORS
330
100000DD
102
}
330
100000DD
100
AcDbXrecord
1000
KFdG
  0
XRECORD
  5
100000E0
102
{ACAD_REACTORS
330
100000DF
102
}
330
100000DF
100
AcDbXrecord
1000
KFdJ
  0
XRECORD
  5
100000E2
102
{ACAD_REACTORS
330
100000E1
102
}
330
100000E1
100
AcDbXrecord
1000
KFhD
  0
XRECORD
  5
100000E4
102
{ACAD_REACTORS
330
100000E3
102
}
330
100000E3
100
AcDbXrecord
1000
KF1H
  0
XRECORD
  5
100000E6
102
{ACAD_REACTORS
330
100000E5
102
}
330
100000E5
100
AcDbXrecord
1000
JFd
  0
XRECORD
  5
100000E8
102
{ACAD_REACTORS
330
100000E7
102
}
330
100000E7
100
AcDbXrecord
1000
KFZD
  0
XRECORD
  5
100000EA
102
{ACAD_REACTORS
330
100000E9
102
}
330
100000E9
100
AcDbXrecord
1000
JFZ
  0
XRECORD
  5
100000EC
102
{ACAD_REACTORS
330
100000EB
102
}
330
100000EB
100
AcDbXrecord
1000
KFRM
  0
XRECORD
  5
100000EE
102
{ACAD_REACTORS
330
100000ED
102
}
330
100000ED
100
AcDbXrecord
1000
KFBL
  0
XRECORD
  5
100000F0
102
{ACAD_REACTORS
330
100000EF
102
}
330
100000EF
100
AcDbXrecord
1000
KFND
  0
XRECORD
  5
100000F2
102
{ACAD_REACTORS
330
100000F1
102
}
330
100000F1
100
AcDbXrecord
1000
KF1C
  0
XRECORD
  5
100000F4
102
{ACAD_REACTORS
330
100000F3
102
}
330
100000F3
100
AcDbXrecord
1000
KFNL
  0
XRECORD
  5
100000F6
102
{ACAD_REACTORS
330
100000F5
102
}
330
100000F5
100
AcDbXrecord
1000
KFxC
  0
XRECORD
  5
100000F8
102
{ACAD_REACTORS
330
100000F7
102
}
330
100000F7
100
AcDbXrecord
1000
KFNM
  0
XRECORD
  5
100000FA
102
{ACAD_REACTORS
330
100000F9
102
}
330
100000F9
100
AcDbXrecord
1000
KF9C
  0
XRECORD
  5
100000FC
102
{ACAD_REACTORS
330
100000FB
102
}
330
100000FB
100
AcDbXrecord
1000
KFJL
  0
XRECORD
  5
100000FE
102
{ACAD_REACTORS
330
100000FD
102
}
330
100000FD
100
AcDbXrecord
1000
KFFK
  0
XRECORD
  5
10000100
102
{ACAD_REACTORS
330
100000FF
102
}
330
100000FF
100
AcDbXrecord
1000
KFdL
  0
XRECORD
  5
10000102
102
{ACAD_REACTORS
330
10000101
102
}
330
10000101
100
AcDbXrecord
1000
KFxJ
  0
XRECORD
  5
10000104
102
{ACAD_REACTORS
330
10000103
102
}
330
10000103
100
AcDbXrecord
1000
KFtC
  0
XRECORD
  5
10000106
102
{ACAD_REACTORS
330
10000105
102
}
330
10000105
100
AcDbXrecord
1000
KFFL
  0
XRECORD
  5
10000108
102
{ACAD_REACTORS
330
10000107
102
}
330
10000107
100
AcDbXrecord
1000
KFZL
  0
XRECORD
  5
1000010A
102
{ACAD_REACTORS
330
10000109
102
}
330
10000109
100
AcDbXrecord
1000
KFpH
  0
XRECORD
  5
1000010C
102
{ACAD_REACTORS
330
1000010B
102
}
330
1000010B
100
AcDbXrecord
1000
KFhM
  0
XRECORD
  5
1000010E
102
{ACAD_REACTORS
330
1000010D
102
}
330
1000010D
100
AcDbXrecord
1000
KFBD
  0
XRECORD
  5
10000110
102
{ACAD_REACTORS
330
1000010F
102
}
330
1000010F
100
AcDbXrecord
1000
KF9D
  0
XRECORD
  5
10000112
102
{ACAD_REACTORS
330
10000111
102
}
330
10000111
100
AcDbXrecord
1000
KFVL
  0
XRECORD
  5
10000114
102
{ACAD_REACTORS
330
10000113
102
}
330
10000113
100
AcDbXrecord
1000
KFVC
  0
XRECORD
  5
10000116
102
{ACAD_REACTORS
330
10000115
102
}
330
10000115
100
AcDbXrecord
1000
KFtD
  0
XRECORD
  5
10000118
102
{ACAD_REACTORS
330
10000117
102
}
330
10000117
100
AcDbXrecord
1000
KFtK
  0
XRECORD
  5
1000011A
102
{ACAD_REACTORS
330
10000119
102
}
330
10000119
100
AcDbXrecord
1000
KFpC
  0
XRECORD
  5
1000011C
102
{ACAD_REACTORS
330
1000011B
102
}
330
1000011B
100
AcDbXrecord
1000
JFV
  0
XRECORD
  5
1000011E
102
{ACAD_REACTORS
330
1000011D
102
}
330
1000011D
100
AcDbXrecord
1000
KFRL
  0
XRECORD
  5
10000120
102
{ACAD_REACTORS
330
1000011F
102
}
330
1000011F
100
AcDbXrecord
1000
KF5C
  0
XRECORD
  5
10000122
102
{ACAD_REACTORS
330
10000121
102
}
330
10000121
100
AcDbXrecord
1000
KFdF
  0
XRECORD
  5
10000124
102
{ACAD_REACTORS
330
10000123
102
}
330
10000123
100
AcDbXrecord
1000
KFxE
  0
XRECORD
  5
10000126
102
{ACAD_REACTORS
330
10000125
102
}
330
10000125
100
AcDbXrecord
1000
KF1E
  0
XRECORD
  5
10000128
102
{ACAD_REACTORS
330
10000127
102
}
330
10000127
100
AcDbXrecord
1000
JFh
  0
XRECORD
  5
1000012A
102
{ACAD_REACTORS
330
10000129
102
}
330
10000129
100
AcDbXrecord
1000
KF9E
  0
XRECORD
  5
1000012C
102
{ACAD_REACTORS
330
1000012B
102
}
330
1000012B
100
AcDbXrecord
1000
KFRG
  0
XRECORD
  5
1000012E
102
{ACAD_REACTORS
330
1000012D
102
}
330
1000012D
100
AcDbXrecord
1000
KFBF
  0
XRECORD
  5
10000130
102
{ACAD_REACTORS
330
1000012F
102
}
330
1000012F
100
AcDbXrecord
1000
KFNF
  0
XRECORD
  5
10000132
102
{ACAD_REACTORS
330
10000131
102
}
330
10000131
100
AcDbXrecord
1000
KFRF
  0
XRECORD
  5
10000134
102
{ACAD_REACTORS
330
10000133
102
}
330
10000133
100
AcDbXrecord
1000
KFVF
  0
XRECORD
  5
10000136
102
{ACAD_REACTORS
330
10000135
102
}
330
10000135
100
AcDbXrecord
1000
KFZF
  0
XRECORD
  5
10000138
102
{ACAD_REACTORS
330
10000137
102
}
330
10000137
100
AcDbXrecord
1000
KFFD
  0
XRECORD
  5
1000013A
102
{ACAD_REACTORS
330
10000139
102
}
330
10000139
100
AcDbXrecord
1000
KFRI
  0
XRECORD
  5
1000013C
102
{ACAD_REACTORS
330
1000013B
102
}
330
1000013B
100
AcDbXrecord
1000
KFZG
  0
XRECORD
  5
1000013E
102
{ACAD_REACTORS
330
1000013D
102
}
330
1000013D
100
AcDbXrecord
1000
KFhF
  0
XRECORD
  5
10000140
102
{ACAD_REACTORS
330
1000013F
102
}
330
1000013F
100
AcDbXrecord
1000
KFVK
  0
XRECORD
  5
10000142
102
{ACAD_REACTORS
330
10000141
102
}
330
10000141
100
AcDbXrecord
1000
KFdI
  0
XRECORD
  5
10000144
102
{ACAD_REACTORS
330
10000143
102
}
330
10000143
100
AcDbXrecord
1000
KFtF
  0
XRECORD
  5
10000146
102
{ACAD_REACTORS
330
10000145
102
}
330
10000145
100
AcDbXrecord
1000
KFxF
  0
XRECORD
  5
10000148
102
{ACAD_REACTORS
330
10000147
102
}
330
10000147
100
AcDbXrecord
1000
KFFH
  0
XRECORD
  5
1000014A
102
{ACAD_REACTORS
330
10000149
102
}
330
10000149
100
AcDbXrecord
1000
KF1F
  0
XRECORD
  5
1000014C
102
{ACAD_REACTORS
330
1000014B
102
}
330
1000014B
100
AcDbXrecord
1000
KF5F
  0
XRECORD
  5
1000014E
102
{ACAD_REACTORS
330
1000014D
102
}
330
1000014D
100
AcDbXrecord
1000
KF1L
  0
XRECORD
  5
10000150
102
{ACAD_REACTORS
330
1000014F
102
}
330
1000014F
100
AcDbXrecord
1000
KFBG
  0
XRECORD
  5
10000152
102
{ACAD_REACTORS
330
10000151
102
}
330
10000151
100
AcDbXrecord
1000
KF9F
  0
XRECORD
  5
10000154
102
{ACAD_REACTORS
330
10000153
102
}
330
10000153
100
AcDbXrecord
1000
KFFG
  0
XRECORD
  5
10000156
102
{ACAD_REACTORS
330
10000155
102
}
330
10000155
100
AcDbXrecord
1000
KFNG
  0
XRECORD
  5
10000158
102
{ACAD_REACTORS
330
10000157
102
}
330
10000157
100
AcDbXrecord
1000
KFZI
  0
XRECORD
  5
1000015A
102
{ACAD_REACTORS
330
10000159
102
}
330
10000159
100
AcDbXrecord
1000
KFVG
  0
XRECORD
  5
1000015C
102
{ACAD_REACTORS
330
1000015B
102
}
330
1000015B
100
AcDbXrecord
1000
KFlG
  0
XRECORD
  5
1000015E
102
{ACAD_REACTORS
330
1000015D
102
}
330
1000015D
100
AcDbXrecord
1000
KFNK
  0
XRECORD
  5
10000160
102
{ACAD_REACTORS
330
1000015F
102
}
330
1000015F
100
AcDbXrecord
1000
KFtG
  0
XRECORD
  5
10000162
102
{ACAD_REACTORS
330
10000161
102
}
330
10000161
100
AcDbXrecord
1000
KFxG
  0
XRECORD
  5
10000164
102
{ACAD_REACTORS
330
10000163
102
}
330
10000163
100
AcDbXrecord
1000
KF1G
  0
XRECORD
  5
10000166
102
{ACAD_REACTORS
330
10000165
102
}
330
10000165
100
AcDbXrecord
1000
KF5G
  0
XRECORD
  5
10000168
102
{ACAD_REACTORS
330
10000167
102
}
330
10000167
100
AcDbXrecord
1000
KF9G
  0
XRECORD
  5
1000016A
102
{ACAD_REACTORS
330
10000169
102
}
330
10000169
100
AcDbXrecord
1000
KFtI
  0
XRECORD
  5
1000016C
102
{ACAD_REACTORS
330
1000016B
102
}
330
1000016B
100
AcDbXrecord
1000
KFFI
  0
XRECORD
  5
1000016E
102
{ACAD_REACTORS
330
1000016D
102
}
330
1000016D
100
AcDbXrecord
1000
KFBH
  0
XRECORD
  5
10000170
102
{ACAD_REACTORS
330
1000016F
102
}
330
1000016F
100
AcDbXrecord
1000
KFJH
  0
XRECORD
  5
10000172
102
{ACAD_REACTORS
330
10000171
102
}
330
10000171
100
AcDbXrecord
1000
KFNH
  0
XRECORD
  5
10000174
102
{ACAD_REACTORS
330
10000173
102
}
330
10000173
100
AcDbXrecord
1000
KFZH
  0
XRECORD
  5
10000176
102
{ACAD_REACTORS
330
10000175
102
}
330
10000175
100
AcDbXrecord
1000
KFdH
  0
XRECORD
  5
10000178
102
{ACAD_REACTORS
330
10000177
102
}
330
10000177
100
AcDbXrecord
1000
KFNJ
  0
XRECORD
  5
1000017A
102
{ACAD_REACTORS
330
10000179
102
}
330
10000179
100
AcDbXrecord
1000
KFhH
  0
XRECORD
  5
1000017C
102
{ACAD_REACTORS
330
1000017B
102
}
330
1000017B
100
AcDbXrecord
1000
KFtH
  0
XRECORD
  5
1000017E
102
{ACAD_REACTORS
330
1000017D
102
}
330
1000017D
100
AcDbXrecord
1000
KFxH
  0
XRECORD
  5
10000180
102
{ACAD_REACTORS
330
1000017F
102
}
330
1000017F
100
AcDbXrecord
1000
KF9J
  0
XRECORD
  5
10000182
102
{ACAD_REACTORS
330
10000181
102
}
330
10000181
100
AcDbXrecord
1000
KFVB
  0
XRECORD
  5
10000184
102
{ACAD_REACTORS
330
10000183
102
}
330
10000183
100
AcDbXrecord
1000
KF5H
  0
XRECORD
  5
10000186
102
{ACAD_REACTORS
330
10000185
102
}
330
10000185
100
AcDbXrecord
1000
KF9H
  0
XRECORD
  5
10000188
102
{ACAD_REACTORS
330
10000187
102
}
330
10000187
100
AcDbXrecord
1000
KFBI
  0
XRECORD
  5
1000018A
102
{ACAD_REACTORS
330
10000189
102
}
330
10000189
100
AcDbXrecord
1000
KFlF
  0
XRECORD
  5
1000018C
102
{ACAD_REACTORS
330
1000018B
102
}
330
1000018B
100
AcDbXrecord
1000
KFJI
  0
XRECORD
  5
1000018E
102
{ACAD_REACTORS
330
1000018D
102
}
330
1000018D
100
AcDbXrecord
1000
KFNC
  0
XRECORD
  5
10000190
102
{ACAD_REACTORS
330
1000018F
102
}
330
1000018F
100
AcDbXrecord
1000
KFlM
  0
XRECORD
  5
10000192
102
{ACAD_REACTORS
330
10000191
102
}
330
10000191
100
AcDbXrecord
1000
KFNI
  0
XRECORD
  5
10000194
102
{ACAD_REACTORS
330
10000193
102
}
330
10000193
100
AcDbXrecord
1000
KFtE
  0
XRECORD
  5
10000196
102
{ACAD_REACTORS
330
10000195
102
}
330
10000195
100
AcDbXrecord
1000
KFVI
  0
XRECORD
  5
10000198
102
{ACAD_REACTORS
330
10000197
102
}
330
10000197
100
AcDbXrecord
1000
KFhI
  0
XRECORD
  5
1000019A
102
{ACAD_REACTORS
330
10000199
102
}
330
10000199
100
AcDbXrecord
1000
KFpI
  0
XRECORD
  5
1000019C
102
{ACAD_REACTORS
330
1000019B
102
}
330
1000019B
100
AcDbXrecord
1000
KF1I
  0
XRECORD
  5
1000019E
102
{ACAD_REACTORS
330
1000019D
102
}
330
1000019D
100
AcDbXrecord
1000
KFpF
  0
XRECORD
  5
100001A0
102
{ACAD_REACTORS
330
1000019F
102
}
330
1000019F
100
AcDbXrecord
1000
KF1J
  0
XRECORD
  5
100001A2
102
{ACAD_REACTORS
330
100001A1
102
}
330
100001A1
100
AcDbXrecord
1000
KF5J
  0
XRECORD
  5
100001A4
102
{ACAD_REACTORS
330
100001A3
102
}
330
100001A3
100
AcDbXrecord
1000
KFBJ
  0
XRECORD
  5
100001A6
102
{ACAD_REACTORS
330
100001A5
102
}
330
100001A5
100
AcDbXrecord
1000
KFFJ
  0
XRECORD
  5
100001A8
102
{ACAD_REACTORS
330
100001A7
102
}
330
100001A7
100
AcDbXrecord
1000
KFBK
  0
XRECORD
  5
100001AA
102
{ACAD_REACTORS
330
100001A9
102
}
330
100001A9
100
AcDbXrecord
1000
KFJJ
  0
XRECORD
  5
100001AC
102
{ACAD_REACTORS
330
100001AB
102
}
330
100001AB
100
AcDbXrecord
1000
KFJK
  0
XRECORD
  5
100001AE
102
{ACAD_REACTORS
330
100001AD
102
}
330
100001AD
100
AcDbXrecord
1000
KFRJ
  0
XRECORD
  5
100001B0
102
{ACAD_REACTORS
330
100001AF
102
}
330
100001AF
100
AcDbXrecord
1000
KFRK
  0
XRECORD
  5
100001B2
102
{ACAD_REACTORS
330
100001B1
102
}
330
100001B1
100
AcDbXrecord
1000
KFZK
  0
XRECORD
  5
100001B4
102
{ACAD_REACTORS
330
100001B3
102
}
330
100001B3
100
AcDbXrecord
1000
KFhJ
  0
XRECORD
  5
100001B6
102
{ACAD_REACTORS
330
100001B5
102
}
330
100001B5
100
AcDbXrecord
1000
KFdK
  0
XRECORD
  5
100001B8
102
{ACAD_REACTORS
330
100001B7
102
}
330
100001B7
100
AcDbXrecord
1000
KFxI
  0
XRECORD
  5
100001BA
102
{ACAD_REACTORS
330
100001B9
102
}
330
100001B9
100
AcDbXrecord
1000
KFlJ
  0
MATERIAL
  5
45
102
{ACAD_REACTORS
330
43
102
}
102
{ACAD_XDICTIONARY
360
100001EC
102
}
330
43
100
AcDbMaterial
  1
BYBLOCK
  0
MATERIAL
  5
44
102
{ACAD_REACTORS
330
43
102
}
102
{ACAD_XDICTIONARY
360
100001EA
102
}
330
43
100
AcDbMaterial
  1
BYLAYER
  0
MATERIAL
  5
46
102
{ACAD_REACTORS
330
43
102
}
102
{ACAD_XDICTIONARY
360
100001EE
102
}
330
43
100
AcDbMaterial
  1
GLOBAL
  0
ACAD_PROXY_OBJECT
  5
6C
102
{ACAD_REACTORS
330
6B
102
}
330
6B
100
AcDbProxyObject
 90
      499
 91
      505
 93
      610
310
40901902A4063FBFFFFFE056BD1B81E855B9FC0AD7A3703D0AD73F4214DD185B99185C9900AD7A3703D0AC73F90141901A02B5E8DC0F42B1CFC02B5E8DC0F42B1CFE5764000000000000300FC0
340
14
340
0
340
11
340
0
 94
        0
1001
ACAD_MLEADERVER
1070
     2
  0
MLINESTYLE
  5
18
102
{ACAD_REACTORS
330
17
102
}
330
17
100
AcDbMlineStyle
  2
Standard
 70
     0
  3

 62
   256
 51
90.0
 52
90.0
 71
     2
 49
0.5
 62
   256
  6
BYLAYER
 49
-0.5
 62
   256
  6
BYLAYER
  0
ACAD_PROXY_OBJECT
  5
10000023
102
{ACAD_REACTORS
330
47
102
}
330
47
100
AcDbProxyObject
 90
      499
 91
      503
 93
      121
310
9053130303A310000000000001650100
  0
ACAD_PROXY_OBJECT
  5
1000001D
102
{ACAD_REACTORS
330
47
102
}
330
47
100
AcDbProxyObject
 90
      499
 91
      503
 93
      113
310
90431303A310000000000000910100
  0
ACAD_PROXY_OBJECT
  5
1000001E
102
{ACAD_REACTORS
330
47
102
}
330
47
100
AcDbProxyObject
 90
      499
 91
      503
 93
      113
310
90431323A310000000000000A10100
  0
ACAD_PROXY_OBJECT
  5
1000001F
102
{ACAD_REACTORS
330
47
102
}
330
47
100
AcDbProxyObject
 90
      499
 91
      503
 93
      113
310
90431363A310000000000000C10100
  0
ACAD_PROXY_OBJECT
  5
10000006
102
{ACAD_REACTORS
330
47
102
}
330
47
100
AcDbProxyObject
 90
      499
 91
      503
 93
       41
310
903313A31500
  0
ACAD_PROXY_OBJECT
  5
1000000D
102
{ACAD_REACTORS
330
47
102
}
330
47
100
AcDbProxyObject
 90
      499
 91
      503
 93
      113
310
904313A31304000000000000244000
  0
ACAD_PROXY_OBJECT
  5
10000016
102
{ACAD_REACTORS
330
47
102
}
330
47
100
AcDbProxyObject
 90
      499
 91
      503
 93
      121
310
905313A3130304000000000000594000
  0
ACAD_PROXY_OBJECT
  5
1000000E
102
{ACAD_REACTORS
330
47
102
}
330
47
100
AcDbProxyObject
 90
      499
 91
      503
 93
      113
310
904313A31324000000000000284000
  0
ACAD_PROXY_OBJECT
  5
1000000F
102
{ACAD_REACTORS
330
47
102
}
330
47
100
AcDbProxyObject
 90
      499
 91
      503
 93
      113
310
904313A31364000000000000304000
  0
ACAD_PROXY_OBJECT
  5
10000007
102
{ACAD_REACTORS
330
47
102
}
330
47
100
AcDbProxyObject
 90
      499
 91
      503
 93
      105
310
903313A324000000000000004000
  0
ACAD_PROXY_OBJECT
  5
10000010
102
{ACAD_REACTORS
330
47
102
}
330
47
100
AcDbProxyObject
 90
      499
 91
      503
 93
      113
310
904313A32304000000000000344000
  0
ACAD_PROXY_OBJECT
  5
10000011
102
{ACAD_REACTORS
330
47
102
}
330
47
100
AcDbProxyObject
 90
      499
 91
      503
 93
      113
310
904313A32354000000000000394000
  0
ACAD_PROXY_OBJECT
  5
10000008
102
{ACAD_REACTORS
330
47
102
}
330
47
100
AcDbProxyObject
 90
      499
 91
      503
 93
      105
310
903313A334000000000000084000
  0
ACAD_PROXY_OBJECT
  5
10000012
102
{ACAD_REACTORS
330
47
102
}
330
47
100
AcDbProxyObject
 90
      499
 91
      503
 93
      113
310
904313A33324000000000000404000
  0
ACAD_PROXY_OBJECT
  5
10000009
102
{ACAD_REACTORS
330
47
102
}
330
47
100
AcDbProxyObject
 90
      499
 91
      503
 93
      105
310
903313A344000000000000104000
  0
ACAD_PROXY_OBJECT
  5
10000013
102
{ACAD_REACTORS
330
47
102
}
330
47
100
AcDbProxyObject
 90
      499
 91
      503
 93
      113
310
904313A34304000000000000444000
  0
ACAD_PROXY_OBJECT
  5
1000000A
102
{ACAD_REACTORS
330
47
102
}
330
47
100
AcDbProxyObject
 90
      499
 91
      503
 93
      105
310
903313A354000000000000144000
  0
ACAD_PROXY_OBJECT
  5
10000014
102
{ACAD_REACTORS
330
47
102
}
330
47
100
AcDbProxyObject
 90
      499
 91
      503
 93
      113
310
904313A35304000000000000494000
  0
ACAD_PROXY_OBJECT
  5
1000000B
102
{ACAD_REACTORS
330
47
102
}
330
47
100
AcDbProxyObject
 90
      499
 91
      503
 93
      105
310
903313A364000000000000184000
  0
ACAD_PROXY_OBJECT
  5
1000000C
102
{ACAD_REACTORS
330
47
102
}
330
47
100
AcDbProxyObject
 90
      499
 91
      503
 93
      105
310
903313A384000000000000204000
  0
ACAD_PROXY_OBJECT
  5
10000015
102
{ACAD_REACTORS
330
47
102
}
330
47
100
AcDbProxyObject
 90
      499
 91
      503
 93
      113
310
904313A38304000000000000544000
  0
ACAD_PROXY_OBJECT
  5
10000020
102
{ACAD_REACTORS
330
47
102
}
330
47
100
AcDbProxyObject
 90
      499
 91
      503
 93
      113
310
90432303A310000000000000D10100
  0
ACAD_PROXY_OBJECT
  5
10000017
102
{ACAD_REACTORS
330
47
102
}
330
47
100
AcDbProxyObject
 90
      499
 91
      503
 93
      105
310
903323A310000000000000010100
  0
ACAD_PROXY_OBJECT
  5
10000021
102
{ACAD_REACTORS
330
47
102
}
330
47
100
AcDbProxyObject
 90
      499
 91
      503
 93
      113
310
90433323A310000000000001010100
  0
ACAD_PROXY_OBJECT
  5
10000018
102
{ACAD_REACTORS
330
47
102
}
330
47
100
AcDbProxyObject
 90
      499
 91
      503
 93
      105
310
903333A310000000000000210100
  0
ACAD_PROXY_OBJECT
  5
10000019
102
{ACAD_REACTORS
330
47
102
}
330
47
100
AcDbProxyObject
 90
      499
 91
      503
 93
      105
310
903343A310000000000000410100
  0
ACAD_PROXY_OBJECT
  5
10000022
102
{ACAD_REACTORS
330
47
102
}
330
47
100
AcDbProxyObject
 90
      499
 91
      503
 93
      113
310
90435303A310000000000001250100
  0
ACAD_PROXY_OBJECT
  5
1000001A
102
{ACAD_REACTORS
330
47
102
}
330
47
100
AcDbProxyObject
 90
      499
 91
      503
 93
      105
310
903353A310000000000000510100
  0
ACAD_PROXY_OBJECT
  5
1000001B
102
{ACAD_REACTORS
330
47
102
}
330
47
100
AcDbProxyObject
 90
      499
 91
      503
 93
      105
310
903363A310000000000000610100
  0
ACAD_PROXY_OBJECT
  5
1000001C
102
{ACAD_REACTORS
330
47
102
}
330
47
100
AcDbProxyObject
 90
      499
 91
      503
 93
      105
310
903383A310000000000000810100
  0
ACAD_PROXY_OBJECT
  5
2F
102
{ACAD_REACTORS
330
2A
102
}
330
2A
100
AcDbProxyObject
 90
      499
 91
      501
 93
      436
310
42CC9915DA5C99599C985B595049028333333333333E33F0000000000000F90107901411070040501600405405064090741402480A0340
1001
ACAD
1000
AcDbSavedByObjectVersion
1070
     0
  0
ACAD_PROXY_OBJECT
  5
32
102
{ACAD_REACTORS
330
2A
102
}
330
2A
100
AcDbProxyObject
 90
      499
 91
      501
 93
      388
310
4150985CDA58D07406404333333333333E33F0000000000000F90107A41107004050150841D405064090741402480A0350
1001
ACAD
1000
AcDbSavedByObjectVersion
1070
     0
  0
ACAD_PROXY_OBJECT
  5
36
102
{ACAD_REACTORS
330
2A
102
}
330
2A
100
AcDbProxyObject
 90
      499
 91
      501
 93
      428
310
42109C9A59DA1D195B90C409028333333333333E33F0000000000000F9010790141107004050150841D405064090741402480A029950
1001
ACAD
1000
AcDbSavedByObjectVersion
1070
     0
  0
ACAD_PROXY_OBJECT
  5
3A
102
{ACAD_REACTORS
330
2A
102
}
330
2A
100
AcDbProxyObject
 90
      499
 91
      501
 93
      452
310
42D0DBDB1BDC90DA185B99D95104090240C333333333333E33F0000000000000F90108901411070040501508421405064090741402480A0350
1001
ACAD
1000
AcDbSavedByObjectVersion
1070
     0
  0
ACAD_PROXY_OBJECT
  5
34
102
{ACAD_REACTORS
330
2A
102
}
330
2A
100
AcDbProxyObject
 90
      499
 91
      501
 93
      500
310
4290DBDB98D95C1D1D585B10940D028333333333333E33F0000000000000F90107902409070040501000000000018199010841D405064090740C02480A0340
1001
ACAD
1000
AcDbSavedByObjectVersion
1070
     0
  0
ACAD_PROXY_OBJECT
  5
35
102
{ACAD_REACTORS
330
2A
102
}
330
2A
100
AcDbProxyObject
 90
      499
 91
      501
 93
      412
310
40D11A5B50B409028333333333333E33F0000000000000F9010790141107004050150841D405064090741402480A02677FFFFFD0
1001
ACAD
1000
AcDbSavedByObjectVersion
1070
     0
  0
ACAD_PROXY_OBJECT
  5
3D
102
{ACAD_REACTORS
330
2A
102
}
330
2A
100
AcDbProxyObject
 90
      499
 91
      501
 93
      452
310
43115919D950DBDB1BDC93D999916409028333333333333E33F0000000000000F9010790141107004050150841D405064090741402480A0350
1001
ACAD
1000
AcDbSavedByObjectVersion
1070
     0
  0
ACAD_PROXY_OBJECT
  5
39
102
{ACAD_REACTORS
330
2A
102
}
330
2A
100
AcDbProxyObject
 90
      499
 91
      501
 93
      444
310
42D19858D95C185D1D195C9B90F409028333333333333E33F0000000000000F9010790141107004050150841D405064090741402480A0350
1001
ACAD
1000
AcDbSavedByObjectVersion
1070
     0
  0
ACAD_PROXY_OBJECT
  5
2B
102
{ACAD_REACTORS
330
2A
102
}
330
2A
100
AcDbProxyObject
 90
      499
 91
      501
 93
      380
310
41119B185D240901404333333333333E33F0000000000000F9010740A907004050150841D405064090741402480A1B50
1001
ACAD
1000
AcDbSavedByObjectVersion
1070
     0
  0
ACAD_PROXY_OBJECT
  5
2C
102
{ACAD_REACTORS
330
2A
102
}
330
2A
100
AcDbProxyObject
 90
      499
 91
      501
 93
      468
310
43519B185D15DA5D1A115919D95CD0140901404333333333333E33F0000000000000F90107409019070040501600405405064090741402480A1B50
1001
ACAD
1000
AcDbSavedByObjectVersion
1070
     0
  0
ACAD_PROXY_OBJECT
  5
2D
102
{ACAD_REACTORS
330
2A
102
}
330
2A
100
AcDbProxyObject
 90
      499
 91
      501
 93
      404
310
41D1DBDD5C985D5910240902404333333333333E33F0000000000000F9010740A9070040501641D405064090741402480A1B50
1001
ACAD
1000
AcDbSavedByObjectVersion
1070
     0
  0
ACAD_PROXY_OBJECT
  5
2E
102
{ACAD_REACTORS
330
2A
102
}
330
2A
100
AcDbProxyObject
 90
      499
 91
      501
 93
      492
310
4411DBDD5C985D5915DA5D1A115919D95CD0340902404333333333333E33F0000000000000F90107409019070040501600405405064090741402480A1B50
1001
ACAD
1000
AcDbSavedByObjectVersion
1070
     0
  0
ACAD_PROXY_OBJECT
  5
31
102
{ACAD_REACTORS
330
2A
102
}
330
2A
100
AcDbProxyObject
 90
      499
 91
      501
 93
      476
310
41921A5919195B90640502408333333333333E33F0000000000000F901079024090700405020000000000001110200405405064090740C02480A0340
1001
ACAD
1000
AcDbSavedByObjectVersion
1070
     0
  0
ACAD_PROXY_OBJECT
  5
3B
102
{ACAD_REACTORS
330
2A
102
}
330
2A
100
AcDbProxyObject
 90
      499
 91
      501
 93
      428
310
42529A5D1D195C93D999914409028333333333333E33F0000000000000F9010790141107004050150A41D405064090741402480A0350
1001
ACAD
1000
AcDbSavedByObjectVersion
1070
     0
  0
ACAD_PROXY_OBJECT
  5
38
102
{ACAD_REACTORS
330
2A
102
}
330
2A
100
AcDbProxyObject
 90
      499
 91
      501
 93
      444
310
42D31A5B995C185D1D195C9B90E409028333333333333E33F0000000000000F9010790141107004050750841D405064090741402483A0350
1001
ACAD
1000
AcDbSavedByObjectVersion
1070
     0
  0
ACAD_PROXY_OBJECT
  5
3C
102
{ACAD_REACTORS
330
2A
102
}
330
2A
100
AcDbProxyObject
 90
      499
 91
      501
 93
      444
310
42D3DD995C9A185B99D3D999915409028333333333333E33F0000000000000F9010790141107004050150941D405064090741402480A0350
1001
ACAD
1000
AcDbSavedByObjectVersion
1070
     0
  0
ACAD_PROXY_OBJECT
  5
33
102
{ACAD_REACTORS
330
2A
102
}
330
2A
100
AcDbProxyObject
 90
      499
 91
      501
 93
      428
310
425499585B1A5CDD1A58D08409038333333333333E33F0000000000000F9010740A907004050150800405405064090740C02480A1B40
1001
ACAD
1000
AcDbSavedByObjectVersion
1070
     0
  0
ACAD_PROXY_OBJECT
  5
42
102
{ACAD_REACTORS
330
2A
102
}
330
2A
100
AcDbProxyObject
 90
      499
 91
      501
 93
      420
310
4194DA1859195911B40902404333333333333E33F0000000000000F9010740A41107004050150800405405064090840C02480A0B40
1001
ACAD
1000
AcDbSavedByObjectVersion
1070
     0
  0
ACAD_PROXY_OBJECT
  5
41
102
{ACAD_REACTORS
330
2A
102
}
330
2A
100
AcDbProxyObject
 90
      499
 91
      501
 93
      516
310
4454DA18591959081DDA5D1A08195919D95CD1A40902404333333333333E33F0000000000000F901074090142907004050250800405405064090740C02480A0B40
1001
ACAD
1000
AcDbSavedByObjectVersion
1070
     0
  0
ACAD_PROXY_OBJECT
  5
3E
102
{ACAD_REACTORS
330
2A
102
}
330
2A
100
AcDbProxyObject
 90
      499
 91
      501
 93
      532
310
4394DA1859195CC81BD98811DC985E5174090240C333333333333E33F0000000000000F901079024090741D01000000000000111010841D405064090740C02480A0340
1001
ACAD
1000
AcDbSavedByObjectVersion
1070
     0
  0
ACAD_PROXY_OBJECT
  5
3F
102
{ACAD_REACTORS
330
2A
102
}
330
2A
100
AcDbProxyObject
 90
      499
 91
      501
 93
      476
310
41D4DAD95D18DA1E51840502408333333333333E33F0000000000000F901079024090741D01000000000000111010B41D405064090741802480A0340
1001
ACAD
1000
AcDbSavedByObjectVersion
1070
     0
  0
ACAD_PROXY_OBJECT
  5
37
102
{ACAD_REACTORS
330
2A
102
}
330
2A
100
AcDbProxyObject
 90
      499
 91
      501
 93
      412
310
41D51A1A58DAD95B90D409028333333333333E33F0000000000000F9010790141107004050150C41D405064090741402480A0350
1001
ACAD
1000
AcDbSavedByObjectVersion
1070
     0
  0
ACAD_PROXY_OBJECT
  5
30
102
{ACAD_REACTORS
330
2A
102
}
330
2A
100
AcDbProxyObject
 90
      499
 91
      501
 93
      420
310
4255DA5C99599C985B595059028333333333333E33F0000000000000F90107901411070040501600405405064090740C02480A0340
1001
ACAD
1000
AcDbSavedByObjectVersion
1070
     0
  0
ACAD_PROXY_OBJECT
  5
40
102
{ACAD_REACTORS
330
2A
102
}
330
2A
100
AcDbProxyObject
 90
      499
 91
      501
 93
      404
310
41560B54985E51940902404000000000000E03F0000000000000F9010740501907004050150841D405064090740C02480A1B40
1001
ACAD
1000
AcDbSavedByObjectVersion
1070
     0
  0
XRECORD
  5
100001C7
102
{ACAD_REACTORS
330
100001BD
102
}
330
100001BD
100
AcDbXrecord
340
0
  0
XRECORD
  5
100001C6
102
{ACAD_REACTORS
330
100001BD
102
}
330
100001BD
100
AcDbXrecord
 90
        0
  0
XRECORD
  5
100001DD
102
{ACAD_REACTORS
330
100001BD
102
}
330
100001BD
100
AcDbXrecord
1000
DSTYLE
1002
{
1070
   340
340
11
1002
}
  0
XRECORD
  5
100001C8
102
{ACAD_REACTORS
330
100001BD
102
}
330
100001BD
100
AcDbXrecord
  1
{73793161-6674-f675-b970-367138716579}
  0
XRECORD
  5
100001C0
102
{ACAD_REACTORS
330
100001BD
102
}
330
100001BD
100
AcDbXrecord
  1

  0
XRECORD
  5
100001C5
102
{ACAD_REACTORS
330
100001BD
102
}
330
100001BD
100
AcDbXrecord
 90
        1
  0
XRECORD
  5
100001C2
102
{ACAD_REACTORS
330
100001BD
102
}
330
100001BD
100
AcDbXrecord
340
1A
  0
XRECORD
  5
100001C4
102
{ACAD_REACTORS
330
100001BD
102
}
330
100001BD
100
AcDbXrecord
 90
    10781
  0
XRECORD
  5
100001C3
102
{ACAD_REACTORS
330
100001BD
102
}
330
100001BD
100
AcDbXrecord
340
19
  0
XRECORD
  5
100001CA
102
{ACAD_REACTORS
330
100001BD
102
}
330
100001BD
100
AcDbXrecord
 40
0.0
  0
XRECORD
  5
100001CD
102
{ACAD_REACTORS
330
100001BD
102
}
330
100001BD
100
AcDbXrecord
340
0
  0
XRECORD
  5
100001D3
102
{ACAD_REACTORS
330
100001BD
102
}
330
100001BD
100
AcDbXrecord
 10
0.0
 20
0.0
 30
0.0
  0
XRECORD
  5
100001CF
102
{ACAD_REACTORS
330
100001BD
102
}
330
100001BD
100
AcDbXrecord
 10
0.0
 20
0.0
 30
0.0
  0
XRECORD
  5
100001D2
102
{ACAD_REACTORS
330
100001BD
102
}
330
100001BD
100
AcDbXrecord
 10
0.0
 20
0.0
 30
0.0
  0
XRECORD
  5
100001D0
102
{ACAD_REACTORS
330
100001BD
102
}
330
100001BD
100
AcDbXrecord
 10
0.0
 20
0.0
 30
0.0
  0
XRECORD
  5
100001D1
102
{ACAD_REACTORS
330
100001BD
102
}
330
100001BD
100
AcDbXrecord
 10
0.0
 20
0.0
 30
0.0
  0
XRECORD
  5
100001CE
102
{ACAD_REACTORS
330
100001BD
102
}
330
100001BD
100
AcDbXrecord
 10
0.0
 20
0.0
 30
0.0
  0
XRECORD
  5
100001CB
102
{ACAD_REACTORS
330
100001BD
102
}
330
100001BD
100
AcDbXrecord
340
0
  0
XRECORD
  5
100001CC
102
{ACAD_REACTORS
330
100001BD
102
}
330
100001BD
100
AcDbXrecord
 70
     0
  0
XRECORD
  5
100001C1
102
{ACAD_REACTORS
330
100001BD
102
}
330
100001BD
100
AcDbXrecord
  1

  0
XRECORD
  5
100001BE
102
{ACAD_REACTORS
330
100001BD
102
}
330
100001BD
100
AcDbXrecord
 90
        1
  0
XRECORD
  5
100001BF
102
{ACAD_REACTORS
330
100001BD
102
}
330
100001BD
100
AcDbXrecord
 90
       70
  0
XRECORD
  5
100001D6
102
{ACAD_REACTORS
330
100001BD
102
}
330
100001BD
100
AcDbXrecord
340
0
  0
XRECORD
  5
100001DC
102
{ACAD_REACTORS
330
100001BD
102
}
330
100001BD
100
AcDbXrecord
 10
0.0
 20
0.0
 30
0.0
  0
XRECORD
  5
100001D8
102
{ACAD_REACTORS
330
100001BD
102
}
330
100001BD
100
AcDbXrecord
 10
0.0
 20
0.0
 30
0.0
  0
XRECORD
  5
100001DB
102
{ACAD_REACTORS
330
100001BD
102
}
330
100001BD
100
AcDbXrecord
 10
0.0
 20
0.0
 30
0.0
  0
XRECORD
  5
100001D9
102
{ACAD_REACTORS
330
100001BD
102
}
330
100001BD
100
AcDbXrecord
 10
0.0
 20
0.0
 30
0.0
  0
XRECORD
  5
100001DA
102
{ACAD_REACTORS
330
100001BD
102
}
330
100001BD
100
AcDbXrecord
 10
0.0
 20
0.0
 30
0.0
  0
XRECORD
  5
100001D7
102
{ACAD_REACTORS
330
100001BD
102
}
330
100001BD
100
AcDbXrecord
 10
0.0
 20
0.0
 30
0.0
  0
XRECORD
  5
100001D4
102
{ACAD_REACTORS
330
100001BD
102
}
330
100001BD
100
AcDbXrecord
340
0
  0
XRECORD
  5
100001D5
102
{ACAD_REACTORS
330
100001BD
102
}
330
100001BD
100
AcDbXrecord
 70
     0
  0
XRECORD
  5
100001C9
102
{ACAD_REACTORS
330
100001BD
102
}
330
100001BD
100
AcDbXrecord
  1
{FAEB1C32-E019-11D5-929B-00C0DF256EC4}
  0
DICTIONARYVAR
  5
100001E8
102
{ACAD_REACTORS
330
100001DE
102
}
330
100001DE
100
DictionaryVariables
280
     0
  1
1:1
  0
DICTIONARYVAR
  5
100001E0
102
{ACAD_REACTORS
330
100001DE
102
}
330
100001DE
100
DictionaryVariables
280
     0
  1
Standard
  0
DICTIONARYVAR
  5
100001DF
102
{ACAD_REACTORS
330
100001DE
102
}
330
100001DE
100
DictionaryVariables
280
     0
  1
Standard
  0
DICTIONARYVAR
  5
100001E3
102
{ACAD_REACTORS
330
100001DE
102
}
330
100001DE
100
DictionaryVariables
280
     0
  1
2
  0
DICTIONARYVAR
  5
100001E4
102
{ACAD_REACTORS
330
100001DE
102
}
330
100001DE
100
DictionaryVariables
280
     0
  1
1
  0
DICTIONARYVAR
  5
100001E9
102
{ACAD_REACTORS
330
100001DE
102
}
330
100001DE
100
DictionaryVariables
280
     0
  1
1
  0
XRECORD
  5
10000003
102
{ACAD_REACTORS
330
10000001
102
}
330
10000001
100
AcDbXrecord
 70
     1
  0
XRECORD
  5
10000002
102
{ACAD_REACTORS
330
10000001
102
}
330
10000001
100
AcDbXrecord
1040
86.0
  0
ACAD_PROXY_OBJECT
  5
10000005
102
{ACAD_REACTORS
330
10000001
102
}
330
10000001
100
AcDbProxyObject
 90
      499
 91
      509
 93
       34
310
40C8804000
  0
DICTIONARY
  5
100001EC
330
45
100
AcDbDictionary
280
     1
  3
ACAD_XREC_ROUNDTRIP
360
100001ED
  0
DICTIONARY
  5
100001EA
330
44
100
AcDbDictionary
280
     1
  3
ACAD_XREC_ROUNDTRIP
360
100001EB
  0
DICTIONARY
  5
100001EE
330
46
100
AcDbDictionary
280
     1
  3
ACAD_XREC_ROUNDTRIP
360
100001EF
  0
XRECORD
  5
100001ED
102
{ACAD_REACTORS
330
100001EC
102
}
330
100001EC
100
AcDbXrecord
102
MATERIAL
148
0.0
149
0.0
149
0.0
 93
        0
 94
      127
282
     0
 72
     1
 77
     1
171
     1
175
     1
179
     1
273
     0
  0
XRECORD
  5
100001EB
102
{ACAD_REACTORS
330
100001EA
102
}
330
100001EA
100
AcDbXrecord
102
MATERIAL
148
0.0
149
0.0
149
0.0
 93
        0
 94
      127
282
     0
 72
     1
 77
     1
171
     1
175
     1
179
     1
273
     0
  0
XRECORD
  5
100001EF
102
{ACAD_REACTORS
330
100001EE
102
}
330
100001EE
100
AcDbXrecord
102
MATERIAL
148
0.0
149
0.0
149
0.0
 93
        0
 94
      127
282
     0
 72
     1
 77
     1
171
     1
175
     1
179
     1
273
     0
  0
ENDSEC
  0
EOF
